www.maiden-world.com
Site
Home
Forum
Wiki
DC Hub
Donate
Links
Contact
About

Content
Albums
Articles
Bootleg DB
Concerts/Gigs
Collectables
Merchandise
Lyrics
Tabs
Tribute Albums
Videos
Ed Hunter
Concert Tickets

Downloads
Mobile
Wallpaper
Bootleg Manager
Other Downloads

Maiden World - Iron Maiden news, discussion, information and articles
Iron Maiden - Remember Tomorrow Guitar Tab

You are here: Home > Iron Maiden Tabs > Iron Maiden - Remember Tomorrow Guitar Tab

Information

About this tab
Song: Iron Maiden - Remember Tomorrow
Author: Kyle Hauswirth (da_haus03@yahoo.com)
Type: Guitar
Album: Iron Maiden
Track no: 2

Author Comments

Here it is, one of my all-time favorites by Maiden. Sorry, no solos this time....maybe later... And this is from memory....

Copyright

This tab is the author's own work and represents their interpretation of the song. You may only use this file for private study, scholarship, or research.


Tab

Click here for printable version
Riff 1 (clean)
E---7-----7-----7---7-----7-----7----8-------8-------8----7-----7---|
B-----8-----8-----8---8-----8-----8----10------10------10---8-----8-|
G-9-----9-----9---------9-----9-----------10------10----------9-----|
D-------------------------------------------------------------------|
A-------------------------------------------------------------------|
E-------------------------------------------------------------------|
(something like that, i'm sure you can figure it out)

Riff 2 (distorted: Riffs 2-5)
E----------------------------------------------------------------|
B----------------------------------------------------------------|
G----------------------------------------------------------------|
D--------4--4-----------5-5--5-----------------------------------|
A-2------2--2-5-4-5--5--3-3--3--3-2------------------------------|
E-0--0-0------3-2-3--3--------------3-2--------------------------|
(again, it's something like that, you can figure out the
rhythm)

Riff 3
E----------------------------------------------------------------|
B----------------------------------------------------------------|
G----------------------------------------------------------------|
D-7-----7-----7-----5-5--7-----7-----7-55-55---------------------|
A-5-5-5-5-5-5-5-5-5-3-3--5-5-5-5-5-5-5-33-33---------------------|
E----------------------------------------------------------------|

Riff 4
E----------------------------------------------------------------|
B----------------------------------------------------------------|
G----------------------------------------------------------------|
D-9-----9-----9-----12-12--9-----9-----9-12-12-12-14-------------|
A-7-7-7-7-7-7-7-7-7-10-10--7-7-7-7-7-7-7-10-10-10-12-------------|
E----------------------------------------------------------------|

Riff 5
E----------------------------------------------------------------|
B----------------------------------------------------------------|
G--------555555-3-----------777777-5-----------444444-2----------|
D-----------------5------------------7------------------4--------|
A-333333-------------555555-------------222222-------------------|
E----------------------------------------------------------------|

E----------------------------------------------------------------|
B----------------------------------------------------------------|
G--------555555-3-----------555555-3-----------777777-5----------|
D-----------------5------------------5------------------7--------|
A-333333-------------333333-------------555555-------------------|
E----------------------------------------------------------------|

E----------------------------------------------------------------|
B----------------------------------------------------------------|
G--------444444-2------------------------------------------------|
D-----------------4--5-----7-------------------------------------|
A-222222-------------3-----5-------------------------------------|
E----------------------------------------------------------------|
Copyright Kyle Hauswirth (da_haus03@yahoo.com)
Tab from Maiden World - (http://www.maiden-world.com/)
Click here for printable version



You are here: Home > Tabs > Iron Maiden - Remember Tomorrow Guitar Tab


All content, images and other resources are the property of their respective copyright holders
Specific website content & style is copyright © 2003-2018 maiden-world.com, All Rights Reserved
Admin E-mail: admin AT maiden-world DOT com , Site Design by Jon Simpson