www.maiden-world.com
Site
Home
Forum
Wiki
DC Hub
Donate
Links
Contact
About

Content
Albums
Articles
Bootleg DB
Concerts/Gigs
Collectables
Merchandise
Lyrics
Tabs
Tribute Albums
Videos
Ed Hunter
Concert Tickets

Downloads
Mobile
Wallpaper
Bootleg Manager
Other Downloads

Maiden World - Iron Maiden news, discussion, information and articles
Iron Maiden - The Duellists Bass Tab

You are here: Home > Iron Maiden Tabs > Iron Maiden - The Duellists Bass Tab

Information

About this tab
Song: Iron Maiden - The Duellists
Author: Guilherme Braga (bass@ez-poa.com.br)
Type: Bass
Album: Powerslave
Track no: 5

Author Comments

Copyright

This tab is the author's own work and represents their interpretation of the song. You may only use this file for private study, scholarship, or research.


Tab

Click here for printable version
Intro
|-------------------------------------------------------------------------------
|*-2-2-2-2-2-2-2-2-2-2-2-2-2-2-2-2-2-2->->->------------------------------------
|*-------------------------------------3-3-3-5-5-5-5-5-5-5-5-5-5-5-5-5-5-5-5-5-5
|-------------------------------------------------------------------------------

--------|
->->->-*|
-5-5-5-*|
--------|
 Play 2x

|-------------------------------------->->->------------------------------------
|*-5-5-5-5-5-5-5-5-5-5-5-5-5-5-5-5-5-5-2-2-2-4-4-4-4-4-4-4-4-4-4-4-4-4-4-4-4-4-4
|*------------------------------------------------------------------------------
|-------------------------------------------------------------------------------

1~~~~~~~ 2~~~~~~
->->->--|-------|
-4-4-4-*|->->->-|
-------*|-5-5-5-|
--------|-------|
 Play 2x

|--------------------------------------------------------------------------------
|*-------------------------------------------------------------------------------
|*-7-7-7-7-7-7-7-7-7-7-7-7-7-7-7-10-10-10-10-9-----------------------------------
|----------------------------------------------10-8-8-8-8-8-8-8-8-8-8-10-10-10-10
     *Vocals enter: "He threw down a glove..."

----------------------|
---------------------*|
----10-10-10-10-9----*|
-10---------------10--|
 Play 2x

|--------------------------------------------------------------------------------
|--------------------------------------------------------------------------------
|----10-10-10-10----9-9-9-9----7-7-7-10-10-10-10-9-------------------------------
|-12-------------11---------10---------------------10-8-8-8-8-8-8-8-8-8-8-10-10--
  "HeĀ“ll tear you apart..."

--------------------------|
--------------------------|
---------10-10-10-10-9----|
10-10-10---------------10-|

|--------------------------------9-9-9-9-7----|
|*-7-7-7-7-7-7-7-7-7-7-9-9-9-9-9-----------9-*|
|*-------------------------------------------*|
|---------------------------------------------|
   "Ooh, fight for the honour..." Play 2x

|---------------------------------------------|
|*-5-5-5-5-5-5-5-5-5-5-7-7-7-7-7-9-9-9-9-7---*|
|*-----------------------------------------9-*|
|---------------------------------------------|
  "Fight for the splendor..." Play 2x

|--------------------------------9-9-9-9-7----|
|*-7-7-7-7-7-7-7-7-7-7-9-9-9-9-9-----------9-*|
|*-------------------------------------------*|
|---------------------------------------------|
   "Ooh, fight for the honour..." Play 2x

|---------------------------------------------------------------------------------|
|-5-5-5-5-5-5-5-5-5-5-7-7-7-7-7------7--------------------------------------------|
|-------------------------------9-10---10-9-7-7-7-7-7-7-7-7-7-7-7-7-7-7-7-7-7-7-7-|
|---------------------------------------------------------------------------------|
  "Fight for the splendor..."

|--------------------------------------------------------------------------------
|*-------------------------------------------------------------------------------
|*-7-7-7-7-7-7-7-7-7-7-7-7-7-7-7-10-10-10-10-9-----------------------------------
|----------------------------------------------10-8-8-8-8-8-8-8-8-8-8-10-10-10-10
     "Ready to start..."
----------------------|
---------------------*|
----10-10-10-10-9----*|
-10---------------10--|
 Play 2x

|--------------------------------------------------------------------------------
|--------------------------------------------------------------------------------
|----10-10-10-10----9-9-9-9----7-7-7-10-10-10-10-9-------------------------------
|-12-------------11---------10---------------------10-8-8-8-8-8-8-8-8-8-8-10-10--
  "Seeing the stain..."

--------------------------|
--------------------------|
---------10-10-10-10-9----|
10-10-10---------------10-|

|--------------------------------9-9-9-9-7----|
|*-7-7-7-7-7-7-7-7-7-7-9-9-9-9-9-----------9-*|
|*-------------------------------------------*|
|---------------------------------------------|
   "Ooh, fight for the honour..." Play 2x

|---------------------------------------------|
|*-5-5-5-5-5-5-5-5-5-5-7-7-7-7-7-9-9-9-9-7---*|
|*-----------------------------------------9-*|
|---------------------------------------------|
  "Fight for the splendor..." Play 2x

|--------------------------------9-9-9-9-7----|
|*-7-7-7-7-7-7-7-7-7-7-9-9-9-9-9-----------9-*|
|*-------------------------------------------*|
|---------------------------------------------|
   "Ooh, fight for the honour..." Play 2x

|---------------------------------------------------------------------------------|
|-5-5-5-5-5-5-5-5-5-5-7-7-7-7-7------7--------------------------------------------|
|-------------------------------9-10---10-9-7-7-7-7-7-7-7-7-7-7-7-7-7-7-7-7-7-7-7-|
|---------------------------------------------------------------------------------|
  "Fight for the splendor..."

|------9---------9---------9---------9---------7---------7---------7---------7----
|*---7---7-9---7---7-9---7---7-9---7---7-9---5---5-7---5---5-7---5---5-7---5---5-7
|*-7---------7---------7---------7---------5---------5---------5---------5--------
|---------------------------------------------------------------------------------

----4---------4---------5---------5---------9---------9---------9---------9------|
--2---2-4---2---2-4---3---3-5---3---3-5---7---7-9---7---7-9---7---7-9---7---7-9-*|
2---------2---------3---------3---------7---------7---------7---------7---------*|
---------------------------------------------------------------------------------|
 Play 2x

|---------/9999999999999\->->->->-------------------------------------------------
|->->->->-----------------0-0-0-0-9-10-12-10-9-------------------->->->->->->->->-
|-7-7-7-7--------------------------------------10-9-10-12-10-9----2-2-2-2-3-3-3-3-
|--------------------------------------------------------------10-----------------

----------9---9-9-9-9-9-9\-|
>->->->--------------------|
7-7-7-7-7---7--------------|
---------------------------|

|---------------------------------------------------------------------------------
|*--------------------------------------------------------------------------------
|*-7-7-7-7-7-7-7-7-7-7-7-7-7-7-7-7-7-7-7-7-7-7----7-9-9-9-9-9-9-9-9-9-9-9-9-9-9-9-
|----------------------------------------------10---------------------------------

----------------------------------------------------------------------------------
------------------------------------------------------7-7-7-7-7-7-9-9-9-9-7-------
-9-9-9-9-9-9-9-7-9-10-10-10-10-10-10-10-10-10-10-9-10-----------------------10-7-7
----------------------------------------------------------------------------------

------------------------------------------|
-----------------------------------------*|
-7-7-7-7-7-7-7-7-7-7-7-7-7-7-7-7-7-7-7-7-*|
------------------------------------------|
 Play 4x

|----------------------------------------------------------------------------------
|*---------------------------------------------------------------------------------
|*---------------------------------------------------------------------------------
|--7-7-7-7-7-7-7-7-7-7-7-7-7-7-7-7-7-7-5-5-5-5-5-5-7-7-7-7-7-7-7-7-7-7-7-7-3-3-3-3-

------------------|
-----------------*|
-----------------*|
-3-3-5-5-5-5-5-5--|
 Play 2x

|-------------------------------------------------------------------------------
|-------------------------------------------------------------------------------
|------------------------------------------------------------------------->->->-
|-7-7-7-7-7-7-7-7-7-7-7-7-7-7-7-7-7-7-5-5-5-5-5-5-7-7-7-7-7-7-7-7-7-7-7-7-3-3-3-

-------|
-------|
->->->-|
-5-5-5-|

|----------------------------------------------------------------------------------
|---------------------------------------------------------------------------------
|---------------------------------------------------------------------------------
|-7-7-7-7-7-7-7-7-7-7-7-7-7-7-7-7-7-7-5-5-5-5-5-5-7-7-7-7-7-7-7-7-7-7-7-7-3-3-3-3-

-----------------|
-----------------|
-----------------|
-3-3-5-5-5-5-5-5-|

|----------------------------------7-7-7-7-6--------------------------------------
|*---9-9-9-9---9-9-9-9---9-9-9-9-------------7-9-9-9-9---9-9-9-9---9-9-9-9---7-7-7
|*--------------------------------------------------------------------------------
|--7---------7---------7---------7---------------------7---------7---------7------
 
-7-6----|
-----7-*|
-------*|
--------|
 Play 2x

|-------------------------------7-7-7-7-6---------------------------------7-7-7-7-
|-7-7-7-7---7-7-7-7---7-7-7-7-------------7-9-9-9-9---9-9-9-9---9-9-9-9-----------
|---------------------------------------------------------------------------------
|---------5---------5---------5---------------------7---------7---------7---------

-6-----------|
---7-9-9-9-9-|
-------------|
-------------|

|----------------------------------7-7-7-7-6--------------------------------------
|*---9-9-9-9---9-9-9-9---9-9-9-9-------------7-9-9-9-9---9-9-9-9---9-9-9-9---7-7-7
|*--------------------------------------------------------------------------------
|--7---------7---------7---------7---------------------7---------7---------7------
 
-7-6----|
-----7-*|
-------*|
--------|
 Play 2x

|-------------------------------7-7-7-7-6---------------------------------7-7-7-7-
|-7-7-7-7---7-7-7-7---7-7-7-7-------------7-9-9-9-9---9-9-9-9---9-9-9-9-----------
|---------------------------------------------------------------------------------
|---------5---------5---------5---------------------7---------7---------7---------

-6---|
---7-|
-----|
-----|

|-----------------------------------------------------------------------------|
|*---------------------------------------------------------------------------*|
|*-7-7-7-7-7-7-7-7-7-7-3-3-3-3-3-3-3-3-3-3-5-5-5-5-5-5-5-5-5-5-2-2-2-2-2-3-5-*|
|-----------------------------------------------------------------------------|
 Play 4x

|----------------------------------------------------------|
|*--------------------------------------------------------*|
|*-7-7-7-7----------------------3-3-3-3-------------------*|
|----------------------------------------------------------|
 Play 2x   guitar plays riff            guitar plays riff


|-------------------------------------------------------------------------------
|*-2-2-2-2-2-2-2-2-2-2-2-2-2-2-2-2-2-2->->->------------------------------------
|*-------------------------------------3-3-3-5-5-5-5-5-5-5-5-5-5-5-5-5-5-5-5-5-5
|-------------------------------------------------------------------------------

--------|
->->->-*|
-5-5-5-*|
--------|
 Play 2x

|-------------------------------------->->->------------------------------------
|*-5-5-5-5-5-5-5-5-5-5-5-5-5-5-5-5-5-5-2-2-2-4-4-4-4-4-4-4-4-4-4-4-4-4-4-4-4-4-4
|*------------------------------------------------------------------------------
|-------------------------------------------------------------------------------

1~~~~~~~ 2~~~~~~
->->->--|-------|
-4-4-4-*|->->->-|
-------*|-5-5-5-|
--------|-------|
 Play 2x

|--------------------------------------------------------------------------------
|*-------------------------------------------------------------------------------
|*-7-7-7-7-7-7-7-7-7-7-7-7-7-7-7-10-10-10-10-9-----------------------------------
|----------------------------------------------10-8-8-8-8-8-8-8-8-8-8-10-10-10-10
   "The fighting resumes..."  

----------------------|
---------------------*|
----10-10-10-10-9----*|
-10---------------10--|
 Play 2x

|--------------------------------------------------------------------------------
|--------------------------------------------------------------------------------
|----10-10-10-10----9-9-9-9----7-7-7-10-10-10-10-9-------------------------------
|-12-------------11---------10---------------------10-8-8-8-8-8-8-8-8-8-8-10-10--
  "The angel of death..."

--------------------------|
--------------------------|
---------10-10-10-10-9----|
10-10-10---------------10-|

|--------------------------------9-9-9-9-7----|
|*-7-7-7-7-7-7-7-7-7-7-9-9-9-9-9-----------9-*|
|*-------------------------------------------*|
|---------------------------------------------|
   "Ooh, fight for the honour..." Play 2x

|---------------------------------------------|
|*-5-5-5-5-5-5-5-5-5-5-7-7-7-7-7-9-9-9-9-7---*|
|*-----------------------------------------9-*|
|---------------------------------------------|
  "Fight for the splendor..." Play 2x

|--------------------------------9-9-9-9-7----|
|*-7-7-7-7-7-7-7-7-7-7-9-9-9-9-9-----------9-*|
|*-------------------------------------------*|
|---------------------------------------------|
   "Ooh, fight for the honour..." Play 2x

|---------------------------------------------------------------------------------|
|-5-5-5-5-5-5-5-5-5-5-7-7-7-7-7------7--------------------------------------------|
|-------------------------------9-10---10-9-7-7-7-7-7-7-7-7-7-7-7-7-7-7-7-7-7-7-7-|
|---------------------------------------------------------------------------------|
  "Fight for the splendor..."
Copyright Guilherme Braga (bass@ez-poa.com.br)
Tab from Maiden World - (http://www.maiden-world.com/)
Click here for printable version



You are here: Home > Tabs > Iron Maiden - The Duellists Bass Tab


All content, images and other resources are the property of their respective copyright holders
Specific website content & style is copyright © 2003-2018 maiden-world.com, All Rights Reserved
Admin E-mail: admin AT maiden-world DOT com , Site Design by Jon Simpson