www.maiden-world.com
Site
Home
Forum
Wiki
DC Hub
Donate
Links
Contact
About

Content
Albums
Articles
Bootleg DB
Concerts/Gigs
Collectables
Merchandise
Lyrics
Tabs
Tribute Albums
Videos
Ed Hunter
Concert Tickets

Downloads
Mobile
Wallpaper
Bootleg Manager
Other Downloads

Maiden World - Iron Maiden news, discussion, information and articles
Iron Maiden - Rime Of The Ancient Mariner Bass Tab

You are here: Home > Iron Maiden Tabs > Iron Maiden - Rime Of The Ancient Mariner Bass Tab

Information

About this tab
Song: Iron Maiden - Rime Of The Ancient Mariner
Author: Wilbert Pol (wfpol@cs.ruu.nl)
Type: Bass
Album: Powerslave
Track no: 8

Author Comments

Legend : w - whole note W - whole rest h - half note H - half rest q - quarter note Q - quarter rest e - eigth note E - eigth rest s - sixteenth note S - sixteenth rest t - thirty-second note T - thirty-second rest + - sustain into next note . - multiply note/rest length by 1.5 ie. e. = e + s {3} - a triplet

Copyright

This tab is the author's own work and represents their interpretation of the song. You may only use this file for private study, scholarship, or research.


Tab

Click here for printable version
114 bpm
---------||-------------------------|-----------------------|
-5-4-----||-------------------------|-----------------------|
-----7-5-||-7-7-7-7-7-7-7-7-7-7-7-7-|-77-7-7-7-7-7-3-3-5--7-|
---------||-------------------------|-----------------------|
 s s s s    e s s e s s e s s e s s   e s s e s s e e e. s

|---------------------------|-------------------|
|---------------------------|-------------------|
|-(7)-7-7-7-7-7-7-7-7-7-7-7-|-7-7-7-7-7-7-3-3-5-|
|---------------------------|-------------------|
  (e) s s e s s e s s e s s   e s s e s s e e q

|---------------------------------|-----------------------------|
|-5-4-----5-4-----5-4-----5-4-----|-5-4-----5-4-----5-5-----4---|
|-----7-5-----7-5-----7-5-----7-5-|-----7-5-----7-5-----5-7---7-|
|---------------------------------|-----------------------------|
  s s s s s s s s s s s s s s s s   s s s s s s s s e e s s s s
                                                    . .

|---------------------------|-----------------------||
|---------------------------|-----------------------||
|-(7)-7-7-7-7-7-7-7-7-7-7-7-|-7-7-7-7-7-7-7-7-7-7-5-||
|---------------------------|-----------------------||
  (e) s s e s s e s s e s s   e s s e s s e s s e e

   verse 1,2
||----------------------------|---------------------------|
||-o--------------------------|-----------------------4---|
||-o--7-7-7-7-7-7-7-7-7-7-7-7-|-7-7-7-7-7-7-7-7-7-5-7---5-|
||----------------------------|---------------------------|
      e s s e s s e s s e s s   e s s e s s e s s s s s s

|-------------------------|---------------------------|
|-------------------------|-----------------------4---|
|-7-7-7-7-7-7-7-7-7-7-7-7-|-3-3-3-3-3-3-3-3-3-5-7---5-|
|-------------------------|---------------------------|
  e s s e s s e s s e s s   e s s e s s e s s s s s s

|-------------------------|-------------------------|
|-------------------------|-------------------------|
|-7-7-7-7-7-7-7-7-7-7-7-7-|-7-7-7-7-7-7-7-7-7-7-7-7-|
|-------------------------|-------------------------|
  e s s e s s e s s e s s   e s s e s s e s s e s s

|-------------------------|---------------------------|
|-------------------------|-----------------------4---|
|-3-3-3-3-3-3-3-3-3-3-3-3-|-5-5-5-5-5-5-5-5-5-5-7---5-|
|-------------------------|---------------------------|
  e s s e s s e s s e s s   e s s e s s e s s s s s s

                                                    2x
|-------------------------|--------------------------||
|-------------------------|------------------------o-||
|-7-7-7-7-7-7-7-7-7-7-7-7-|-7-7-7-7-7-7-7-7-7-7-5--o-||
|-------------------------|--------------------------||
  e s s e s s e s s e s s   e s s e s s e s s e e

  Interlude
|-----------------------4-|-------------------------|
|-5-4---4-5-5-5-5-4---4---|-5-4---4-5-5-5-5-4---4---|
|-----7-------------7-----|-----7-------------7---5-|
|-------------------------|-------------------------|
  s s s s e s s s s s s q   s s s s e s s s s s s q
          .                         .

|-----------------------4-|---------------------------|
|-5-4---4-5-5-5-5-4---4---|-5-4---4-5-5-5-5-5-----4---|
|-----7-------------7-----|-----7-------------5-7---7-|
|-------------------------|---------------------------|
  s s s s e s s s s s s q   s s s s e s s e e s s s s
          .                         .     . .

|---------------------------|-----------------------|
|---------------------------|-----------------------|
|-(7)-7-7-7-7-7-7-7-7-7-7-7-|-7-7-7-7-7-7-7-7-7-7-5-|
|---------------------------|-----------------------|
  (e) s s e s s e s s e s s   e s s e s s e s s e e

|-----------------------|-----------------------|
|-----------------------|-----------------------|
|-3-3-3-3-3-3-3-3-3-3-3-|-5-5-5-5-5-5-5-5-5-5-5-|
|-----------------------|-----------------------|
  e s s e s s e s s e e   e s s e s s e s s e e

|-----------------------|-------------------------|
|-----------------------|---------------------4---|
|-3-3-3-3-3-3-3-3-3-3-3-|-5-5-5-5-5-5-5-5-5-7---7-|
|-----------------------|-------------------------|
  e s s e s s e s s e e   e s s e s s e e s s s s
                                      . .

|---------------------------|-----------------------||
|---------------------------|-----------------------||
|-(7)-7-7-7-7-7-7-7-7-7-7-7-|-7-7-7-7-7-7-7-7-7-7-5-||
|---------------------------|-----------------------||
  (e) s s e s s e s s e s s   e s s e s s e s s e e

    verse 3,4
||----------------------------|---------------------------|
||-o--------------------------|-----------------------4---|
||-o--7-7-7-7-7-7-7-7-7-7-7-7-|-7-7-7-7-7-7-7-7-7-5-7---5-|
||----------------------------|---------------------------|
      e s s e s s e s s e s s   e s s e s s e s s s s s s

|-------------------------|---------------------------|
|-------------------------|-----------------------4---|
|-7-7-7-7-7-7-7-7-7-7-7-7-|-7-7-7-7-7-7-7-7-7-5-7---5-|
|-------------------------|---------------------------|
  e s s e s s e s s e s s   e s s e s s e s s s s s s

|-------------------------|---------------------------|
|-------------------------|-----------------------4---|
|-7-7-7-7-7-7-7-7-7-7-7-7-|-7-7-7-7-7-7-7-7-7-5-7---5-|
|-------------------------|---------------------------|
  e s s e s s e s s e s s   e s s e s s e s s s s s s

|-------------------------|-------------------------|
|-------------------------|-------------------------|
|-7-7-7-7-7-7-7-7-7-7-7-7-|-7-7-7-7-7-7-7-7-7-7-7-7-|
|-------------------------|-------------------------|
  e s s e s s e s s e s s   e s s e s s e s s e s s

|-------------------------|-------------------------|
|-------------------------|-------------------------|
|-3-3-3-3-3-3-3-3-3-3-3-3-|-5-5-5-5-5-5-5-5-5-5-5-5-|
|-------------------------|-------------------------|
  e s s e s s e s s e s s   e s s e s s e s s e s s

|-------------------------|-------------------------|
|-------5-4---------------|---------5-4-------------|
|-7-7-7-----7-5-7-7-7-5-7-|-(7)-7-7-----7-5-7-7-7-7-|
|-------------------------|-------------------------|
  e s s s s s s e s s e e   (e) s s s s s s e s s q
  .             .

|-------------------------|-------------------------|
|-------------------------|-------------------------|
|-3-3-3-3-3-3-3-3-3-3-3-3-|-5-5-5-5-5-5-5-5-5-5-5-5-|
|-------------------------|-------------------------|
  e s s e s s e s s e s s   e s s e s s e s s e s s

                                                     2x
|-------------------------|--------------------------||
|-------5-4---------------|---------5-4------------o-||
|-7-7-7-----7-5-7-7-7-5-7-|-(7)-7-7-----7-5-7-7-5--o-||
|-------------------------|--------------------------||
  e s s s s s s e s s e e   (e) s s s s s s q e e
  .             .

  verse 5
|-------------------------|---------------------------|
|-------------------------|-----------------------4---|
|-7-7-7-7-7-7-7-7-7-7-7-7-|-7-7-7-7-7-7-7-7-7-5-7---5-|
|-------------------------|---------------------------|
  e s s e s s e s s e s s   e s s e s s e s s s s s s

|-------------------------|-------------------------|
|-------------------------|-------------------------|
|-7-7-7-7-7-7-7-7-7-7-7-7-|-7-7-7-7-7-7-7-7-7-7-7-7-|
|-------------------------|-------------------------|
  e s s e s s e s s e s s   e s s e s s e s s e s s

|-------------------------|---------------------------|
|-------------------------|-----------------------4---|
|-5-5-5-5-5-5-5-5-5-5-5-5-|-5-5-5-5-5-5-5-5-5-5-7---5-|
|-------------------------|---------------------------|
  e s s e s s e s s e s s   e s s e s s e s s s s s s

|-------------------------|-------------------------|
|-------------------------|-------------------------|
|-7-7-7-7-7-7-7-7-7-7-7-7-|-7-7-7-7-7-7-7-7-7-7-7-7-|
|-------------------------|-------------------------|
  e s s e s s e s s e s s   e s s e s s e s s e s s

|---------------------------------|-----------------------------|
|-5-4-----5-4-----5-4-----5-4-----|-5-4-----5-4-----5-5-----4---|
|-----7-5-----7-5-----7-5-----7-5-|-----7-5-----7-5-----5-7---7-|
|---------------------------------|-----------------------------|
  s s s s s s s s s s s s s s s s   s s s s s s s s e e s s s s
                                                    . .

|---------------------------|-------------------------|
|---------------------------|-------------------------|
|-(7)-7-7-7-7-7-7-7-7-7-7-7-|-7-7-7-7-7-7-7-7-7-7-7-7-|
|---------------------------|-------------------------|
  (e) s s e s s e s s e s s   e s s e s s e s s e s s

|---------------------------------|-----------------------------||
|-5-4-----5-4-----5-4-----5-4-----|-5-4-----5-4-----5-5-----4---||
|-----7-5-----7-5-----7-5-----7-5-|-----7-5-----7-5-----5-7---7-||
|---------------------------------|-----------------------------||
  s s s s s s s s s s s s s s s s   s s s s s s s s e e s s s s
                                                    . .

  ca 162 bpm
  verse 6,7
||----------|-------|-------------------------|-------------------------|
||-o--------|-------|-------4-4-4-5-5-5-7-5-4-|-------4-4-4-5-5-5-7-5-4-|
||-o--7-----|-7-----|-7-7-7-------------------|-7-7-7-------------------|
||----0-----|-0-----|-------------------------|-------------------------|
      q  H.   q  H.   e e e e e e e e e e e e   e e e e e e e e e e e e
      .       .       { 3 } { 3 } { 3 } { 3 }   { 3 } { 3 } { 3 } { 3 }

|-------|-------|-------------------------|-------------------------|
|-------|-------|-------4-4-4-5-5-5-7-5-4-|-------4-4-4-5-5-5-7-5-4-|
|-7-----|-7-----|-7-7-7-------------------|-7-7-7-------------------|
|-0-----|-0-----|-------------------------|-------------------------|
  q  H.   q  H.   e e e e e e e e e e e e   e e e e e e e e e e e e
  .       .       { 3 } { 3 } { 3 } { 3 }   { 3 } { 3 } { 3 } { 3 }

|-------------------------|-------------------------|
|-------------------------|-------------------------|
|-3-3-0-3-3-3-3-3-3-5-5-5-|-3-3-0-3-3-3-3-3-3-5-5-5-|
|-------------------------|-------------------------|
  e e e e e e e e e e e e   e e e e e e e e e e e e
  { 3 } { 3 } { 3 } { 3 }   { 3 } { 3 } { 3 } { 3 }

|-------------------------|-------------------------|
|-------------------------|-------------------------|
|-3-3-0-3-3-3-3-3-3-5-5-5-|-3-3-0-3-3-3-3-3-3-5-5-5-|
|-------------------------|-------------------------|
  e e e e e e e e e e e e   e e e e e e e e e e e e
  { 3 } { 3 } { 3 } { 3 }   { 3 } { 3 } { 3 } { 3 }

|-------------------------|-------------------------|
|-------5-5-5-4-5-4-------|-------5-5-5-4-5-4-------|
|-0-0-0-------------5-5-5-|-0-0-0-------------5-5-5-|
|-------------------------|-------------------------|
  e e e e e e e e e e e e   e e e e e e e e e e e e
  { 3 } { 3 } { 3 } { 3 }   { 3 } { 3 } { 3 } { 3 }

|-------------------------|-------------------------|
|-------5-5-5-4-5-4-------|-------5-5-5-4-5-4-------|
|-0-0-0-------------5-5-5-|-0-0-0-------------5-5-5-|
|-------------------------|-------------------------|
  e e e e e e e e e e e e   e e e e e e e e e e e e
  { 3 } { 3 } { 3 } { 3 }   { 3 } { 3 } { 3 } { 3 }

|-------------------------|-------------------------|
|-------------------------|-------------------------|
|-3-3-0-3-3-3-3-3-3-5-5-5-|-3-3-0-3-3-3-3-3-3-5-5-5-|
|-------------------------|-------------------------|
  e e e e e e e e e e e e   e e e e e e e e e e e e
  { 3 } { 3 } { 3 } { 3 }   { 3 } { 3 } { 3 } { 3 }

|-------------------------|-------------------------|
|-------------------------|-------------------------|
|-3-3-0-3-3-3-3-3-3-5-5-5-|-3-3-0-3-3-3-3-3-3-5-5-5-|
|-------------------------|-------------------------|
  e e e e e e e e e e e e   e e e e e e e e e e e e
  { 3 } { 3 } { 3 } { 3 }   { 3 } { 3 } { 3 } { 3 }

|-------------------------|-------------------------|
|-------5-5-5-4-5-4-------|-------5-5-5-4-5-4-------|
|-0-0-0-------------5-5-5-|-0-0-0-------------5-5-5-|
|-------------------------|-------------------------|
  e e e e e e e e e e e e   e e e e e e e e e e e e
  { 3 } { 3 } { 3 } { 3 }   { 3 } { 3 } { 3 } { 3 }

                                                        2x
|-------------------------|----------------------------||
|-------5-5-5-4-5-4-------|-------5-5-5-4-5-4--------o-||
|-0-0-0-------------5-5-5-|-0-0-0-------------5-5-5--o-||
|-------------------------|----------------------------||
  e e e e e e e e e e e e   e e e e e e e e e e e e
  { 3 } { 3 } { 3 } { 3 }   { 3 } { 3 } { 3 } { 3 }

||----------------------------|-------------------------|
||-o--4-6-7-5-4---4-6-7-5-4---|-4-6-7-5-4---4-6-7-5-4---|
||-o------------4-----------4-|-----------4-----------4-|
||----------------------------|-------------------------|
      e e e e e e e e e e e e   e e e e e e e e e e e e
      { 3 } { 3 } { 3 } { 3 }   { 3 } { 3 } { 3 } { 3 }

|---------------------------|---------------------------|
|-7-9-10-9-7---7-9-10-9-7---|-7-9-10-9-7---7-9-10-9-7---|
|------------7------------7-|------------7------------7-|
|---------------------------|---------------------------|
  e e e  e e e e e e  e e e   e e e  e e e e e e  e e e
  { 3 }  { 3 } { 3 }  { 3 }   { 3 }  { 3 } { 3 }  { 3 }

|---------------------------|---------------------------|
|---------------------------|---------------------------|
|-7-9-10-9-7---7-9-10-9-7---|-7-9-10-9-7---7-9-10-9-7---|
|------------7------------7-|------------7------------7-|
  e e e  e e e e e e  e e e   e e e  e e e e e e  e e e
  { 3 }  { 3 } { 3 }  { 3 }   { 3 }  { 3 } { 3 }  { 3 }

                                                                       2x
|-------------------------------|---------------------------------------||
|-------------------------------|-------------------------------------o-||
|-8-10-11-10-8---8-10-11-10-8---|-10-12-13-12-10----10-12-13-12-10----o-||
|--------------8--------------8-|----------------10----------------10---||
  e e  e  e  e e e e  e  e  e e   e  e  e  e  e  e  e  e  e  e  e  e
  { 3  }  { 3  } { 3  }  { 3  }   {  3  }  {  3  }  {  3  }  {  3  }

||----------------------------|-------------------------|
||-o--5-----------5-----------|-5-----------7-7-7-7-5-4-|
||-o----7-7-7-7-7---7-7-7-7-7-|---7-7-7-7-7-------------|
||----------------------------|-------------------------|
      e e e e e e e e e e e e   e e e e e e e e e e e e
      { 3 } { 3 } { 3 } { 3 }   { 3 } { 3 } { 3 } { 3 }

|1,2,3.                                             |
|-------------------------|------------------------||
|-5-----------5-----------|----------------------o-||
|---7-7-7-7-7---7-7-7-7-7-|-3-3-3-3-3-3-6-6-6-6--o-||
|-------------------------|------------------------||
  e e e e e e e e e e e e   e e e e e e e e e q
  { 3 } { 3 } { 3 } { 3 }   { 3 } { 3 } { 3 }


|4.                    q = q. 12/8
|---------------------|--------------------|-6-------||
|-5-----------5-------|-7--4-7-4-----8-----|-7-------||
|---7-7-7-7-7---7-7-7-|----------7-9-------|-0-------||
|---------------------|--------------------|---------||
  e e e e e e e e e q   q. e e e e q q  Q
  { 3 } { 3 } { 3 }        { 3 }
                        rit.-------------------------

 4/4  ca 66 bpm
|-------10-------10-------10-------10-|-------10-------10-------10-------10-|
|----11-------11-------11-------11----|----11-------11-------11-------11----|
|-12-------12-------12-------12-------|-12-------12-------12-------12-------|
|-------------------------------------|-------------------------------------|
  e  e  e  e  e  e  e  e  e  e  e  e    e  e  e  e  e  e  e  e  e  e  e  e
  {  3  }  {  3  }  {  3  }  {  3  }    {  3  }  {  3  }  {  3  }  {  3  }

|------8------8------8------8-|------8------8------8------8-||
|----9------9------9------9---|----9------9------9------9---||
|-10-----10-----10-----10-----|-10-----10-----10-----10-----||
|-----------------------------|-----------------------------||
  e  e e e  e e e  e e e  e e   e  e e e  e e e  e e e  e e
  { 3  } { 3  } { 3  } { 3  }   { 3  } { 3  } { 3  } { 3  }

   2nd time verse 8
||---------10-------10-------10-------10-|-------10-------10-------10-------10-|
||-o----11-------11-------11-------11----|----11-------11-------11-------11----|
||-o-12-------12-------12-------12-------|-12-------12-------12-------12-------|
||---------------------------------------|-------------------------------------|
     e  e  e  e  e  e  e  e  e  e  e  e    e  e  e  e  e  e  e  e  e  e  e  e
     {  3  }  {  3  }  {  3  }  {  3  }    {  3  }  {  3  }  {  3  }  {  3  }

|-----7-----7-----7-----7-|-----7-----7-----7-----7-|
|---8-----8-----8-----8---|---8-----8-----8-----8---|
|-9-----9-----9-----9-----|-9-----9-----9-----9-----|
|-------------------------|-------------------------|
  e e e e e e e e e e e e   e e e e e e e e e e e e
  { 3 } { 3 } { 3 } { 3 }   { 3 } { 3 } { 3 } { 3 }

|-------10-------10-------10-------10-|-------10-------10-------10-------10-|
|----11-------11-------11-------11----|----11-------11-------11-------11----|
|-12-------12-------12-------12-------|-12-------12-------12-------12-------|
|-------------------------------------|-------------------------------------|
  e  e  e  e  e  e  e  e  e  e  e  e    e  e  e  e  e  e  e  e  e  e  e  e
  {  3  }  {  3  }  {  3  }  {  3  }    {  3  }  {  3  }  {  3  }  {  3  }

                                                              2x
|------8------8------8------8-|------8------8------8------8---||
|----9------9------9------9---|----9------9------9------9---o-||
|-10-----10-----10-----10-----|-10-----10-----10-----10-----o-||
|-----------------------------|-------------------------------||
  e  e e e  e e e  e e e  e e   e  e e e  e e e  e e e  e e
  { 3  } { 3  } { 3  } { 3  }   { 3  } { 3  } { 3  } { 3  }

|-------10-------10-------10-------10-|-------10-------10-------10-------10-|
|----11-------11-------11-------11----|----11-------11-------11-------11----|
|-12-------12-------12-------12-------|-12-------12-------12-------12-------|
|-------------------------------------|-------------------------------------|
  e  e  e  e  e  e  e  e  e  e  e  e    e  e  e  e  e  e  e  e  e  e  e  e
  {  3  }  {  3  }  {  3  }  {  3  }    {  3  }  {  3  }  {  3  }  {  3  }

|-----7-----7-----7-----7-|-----7-----7-----7-----7-||
|---8-----8-----8-----8---|---8-----8-----8-----8---||
|-9-----9-----9-----9-----|-9-----9-----9-----9-----||
|-------------------------|-------------------------||
  e e e e e e e e e e e e   e e e e e e e e e e e e
  { 3 } { 3 } { 3 } { 3 }   { 3 } { 3 } { 3 } { 3 }

||---10-------10-------10-------10-------|-10-------10-------10-------10-------|
||-o----12-------12-------12-------12----|----12-------12-------12-------12----|
||-o-------12-------12-------12-------12-|-------12-------12-------12-------12-|
||---------------------------------------|-------------------------------------|
     e  e  e  e  e  e  e  e  e  e  e  e    e  e  e  e  e  e  e  e  e  e  e  e
     {  3  }  {  3  }  {  3  }  {  3  }    {  3  }  {  3  }  {  3  }  {  3  }

|-8-------8-------8-------8-------|-8-------8-------8-------8-------|
|---10------10------10------10----|---10------10------10------10----|
|------10------10------10------10-|------10------10------10------10-|
|---------------------------------|---------------------------------|
  e e  e  e e  e  e e  e  e e  e    e e  e  e e  e  e e  e  e e  e
  { 3  }  { 3  }  { 3  }  { 3  }    { 3  }  { 3  }  { 3  }  { 3  }

|-10-------10-------10-------10-------|-10-------10-------10-------10-------|
|----12-------12-------12-------12----|----12-------12-------12-------12----|
|-------12-------12-------12-------12-|-------12-------12-------12-------12-|
|-------------------------------------|-------------------------------------|
  e  e  e  e  e  e  e  e  e  e  e  e    e  e  e  e  e  e  e  e  e  e  e  e
  {  3  }  {  3  }  {  3  }  {  3  }    {  3  }  {  3  }  {  3  }  {  3  }

|1.
|-7-----7-----7-----7-----|-7-----7-----7-----7-------||
|---9-----9-----9-----9---|---9-----9-----9-----9---o-||
|-----9-----9-----9-----9-|-----9-----9-----9-----9-o-||
|-------------------------|---------------------------||
  e e e e e e e e e e e e   e e e e e e e e e e e e
  { 3 } { 3 } { 3 } { 3 }   { 3 } { 3 } { 3 } { 3 }

|2.
|-7-----7-----7-----7---7---|-(7)----------||
|---9-----9-----9-----9---9-|-(9)----------||
|-----9-----9-----9---------|--9-----------||
|---------------------------|--------------||
  e e e e e e e e e e e s s
  { 3 } { 3 } { 3 } {  3  }

  ca 180 bpm
|-11-----11-----11---|-12-----12-----12---|-14-----14-----14---|
|----0-0----0-0----0-|----0-0----0-0----0-|----0-0----0-0----0-|
|--------------------|--------------------|--------------------|
|--------------------|--------------------|--------------------|
  e  e e e  e e e  e   e  e e e  e e e  e   e  e e e  e e e  e

|---14-----14---14---|-11-----11-----11---|-12-----12-----12---|
|-0----0-0----0----0-|----0-0----0-0----0-|----0-0----0-0----0-|
|--------------------|--------------------|--------------------|
|--------------------|--------------------|--------------------|
  e e  e e e  e e  e   e  e e e  e e e  e   e  e e e  e e e  e

|-14-----14-----14---|---14-----14---14---||
|----0-0----0-0----0-|-0----0-0----0----0-||
|--------------------|--------------------||
|--------------------|--------------------||
  e  e e e  e e e  e   e e  e e e  e e  e

  verse 9,10
||---11-----11-----11---|-12-----11-----12---|-14-----14-----14---|
||-o----0-0----0-0----0-|----0-0----0-0----0-|----0-0----0-0----0-|
||-o--------------------|--------------------|--------------------|
||----------------------|--------------------|--------------------|
     e  e e e  e e e  e   e  e e e  e e e  e   e  e e e  e e e  e

|---14-----14---14---|-11-----11-----11---|-12-----11-----12---|
|-0----0-0----0----0-|----0-0----0-0----0-|----0-0----0-0----0-|
|--------------------|--------------------|--------------------|
|--------------------|--------------------|--------------------|
  e e  e e e  e e  e   e  e e e  e e e  e   e  e e e  e e e  e

|-14-----14-----14---|---14-----14---14---|-9-----9-----9---|
|----0-0----0-0----0-|-0----0-0----0----0-|---0-0---0-0---0-|
|--------------------|--------------------|-----------------|
|--------------------|--------------------|-----------------|
  e  e e e  e e e  e   e e  e e e  e e  e   e e e e e e e e

|-10-----10-----10---|-9-----9-----9---|-10-----10-----10---|
|----0-0----0-0----0-|---0-0---0-0---0-|----0-0----0-0----0-|
|--------------------|-----------------|--------------------|
|--------------------|-----------------|--------------------|
  e  e e e  e e e  e   e e e e e e e e   e  e e e  e e e  e

                                                                       2x
|-7-----7-----7---|---7-----7-----|-7-----7-----7---|---7-----7---7-----||
|---0-0---0-0---0-|-0---0-0---0-0-|---0-0---0-0---0-|-0---0-0---0---0-o-||
|-----------------|---------------|-----------------|-----------------o-||
|-----------------|---------------|-----------------|-------------------||

  verse 11
|-5-----5-----5---|-3-------5-------|-7-----7-----7---|---7-----7---7---|
|---0-0---0-0---0-|---0-0-0---0-0-0-|---0-0---0-0---0-|-0---0-0---0---0-|
|-----------------|-----------------|-----------------|-----------------|
|-----------------|-----------------|-----------------|-----------------|
  e e e e e e e e   e e e e e e e e   e e e e e e e e   e e e e e e e e

|-5-----5-----5---|-3-------5-------|-7-----7-----7---|---7-----7---7---|
|---0-0---0-0---0-|---0-0-0---0-0-0-|---0-0---0-0---0-|-0---0-0---0---0-|
|-----------------|-----------------|-----------------|-----------------|
|-----------------|-----------------|-----------------|-----------------|
  e e e e e e e e   e e e e e e e e   e e e e e e e e   e e e e e e e e

|-5-----5-----5---|-3-----3-----3---|-5-----5-----5---|-7-----7-----7---|
|---0-0---0-0---0-|---0-0---0-0---0-|---0-0---0-0---0-|---0-0---0-0---0-|
|-----------------|-----------------|-----------------|-----------------|
|-----------------|-----------------|-----------------|-----------------|
  e e e e e e e e   e e e e e e e e   e e e e e e e e   e e e e e e e e

|-5-----5-----5---|-3-------5-5-|-7-----7-------7-|-(7)-7---7---7---7-||
|---0-0---0-0---0-|---0-0-0-----|---0-0---0-0-0---|-------------------||
|-----------------|-------------|-----------------|-------0---0---0---||
|-----------------|-------------|-----------------|-------------------||
  e e e e e e e e   e e e e q q   e e e e e e e e   (e) e e e e e e e

 12/8
 q. = ca 140
|---------------------|-------------------------|
|-7-7-7---7-7-7-7---7-|-------------------------|
|-------0---------0---|-0-0-0-0-0-0-0-0-0-0-0-0-|
|---------------------|-------------------------|
  q e e e e q e e e e   e e e e e e e e e e e e

|-------------------------|-------------------------|
|-------------------------|-------------------------|
|-0-0-0-0-0-0-0-0-0-0-0-0-|-0-0-0-0-0-0-0-0-0-0-0-0-|
|-------------------------|-------------------------|
  e e e e e e e e e e e e   e e e e e e e e e e e e

|-------------------------|-------------------------|
|-------------------------|-------------------------|
|-0-0-0-0-0-0-0-0-0-0-0-0-|-0-0-0-0-0-0-0-0-0-0-0-0-|
|-------------------------|-------------------------|
  e e e e e e e e e e e e   e e e e e e e e e e e e

|-------------------------|-------------------------||
|-------------------------|-------------------------||
|-0-0-0-0-0-0-0-0-0-0-0-0-|-0-0-0-0-0-0-0-0-0-0-0-0-||
|-------------------------|-------------------------||
  e e e e e e e e e e e e   e e e e e e e e e e e e

||---------------------------|-------------------------|
||-o-------------------------|-------------------------|
||-o-0-0-0-0-0-0-0-0-0-0-0-0-|-0-0-0-0-0-0-3-3-3-3-2-0-|
||---------------------------|-------------------------|
     e e e e e e e e e e e e   e e e e e e e e e e e e

                                                     2x
|-------------------------|---------------------------||
|-------------------------|-------------------------o-||
|-------------------------|-------------------------o-||
|-1-1-1-1-1-1-1-1-1-1-1-1-|-3-3-3-3-3-3-5-5-5-3-3-3---||
  e e e e e e e e e e e e   e e e e e e e e e e e e

  Guitar Solo #1
||---------------------------|-------------------------|
||-o-------------------------|-------------------------|
||-o-0-0-0-0-0-0-0-0-0-0-0-0-|-0-0-0-0-0-0-3-3-3-3-2-0-|
||---------------------------|-------------------------|
     e e e e e e e e e e e e   e e e e e e e e e e e e

                                                     4x
|-------------------------|---------------------------||
|-------------------------|-------------------------o-||
|-------------------------|-------------------------o-||
|-1-1-1-1-1-1-1-1-1-1-1-1-|-3-3-3-3-3-3-5-5-5-3-3-3---||
  e e e e e e e e e e e e   e e e e e e e e e e e e

  Guitar Solo #2
||---------------------------|-------------------------|
||-o-------------------------|-------------------------|
||-o-7-7-7-7-7-7-7-7-7-7-7-7-|-7-7-7-7-7-7-7-7-7-7-7-7-|
||-------------------------0-|-----------------------0-|
     e e e e e e e e e e e e   e e e e e e e e e e e e

                                                      4x
|-------------------------|---------------------------||
|-------------------------|-------------------------o-||
|-3-3-3-3-3-3-3-3-3-3-3-3-|-5-5-5-5-5-5-7-7-7-5-5-5-o-||
|-------------------------|---------------------------||
  e e e e e e e e e e e e   e e e e e e e e e e e e

  Harmony Guitar Interlude
||---------------------------|-------------------------|
||-o-------------------------|-------------------------|
||-o-7-7-7-7-7-7-7-7-7-7-7-7-|-7-7-7-7-7-7-7-7-7-7-7-7-|
||---------------------------|-------------------------|
     e e e e e e e e e e e e   e e e e e e e e e e e e

                                                      4x
|-------------------------|---------------------------||
|-------------------------|-------------------------o-||
|-3-3-3-3-3-3-3-3-3-3-3-3-|-5-5-5-5-5-5-7-7-7-5-5-5-o-||
|-------------------------|---------------------------||
  e e e e e e e e e e e e   e e e e e e e e e e e e

||---------------------------|-------------------------|
||-o-------------------------|-------------------------|
||-o-7-7-7-7-7-7-7-7-7-7-7-7-|-7-7-7-7-7-7-7-7-7-7-7-7-|
||---------------------------|-------------------------|
     e e e e e e e e e e e e   e e e e e e e e e e e e

                                                      2x
|-------------------------|---------------------------||
|-------------------------|-------------------------o-||
|-3-3-3-3-3-3-3-3-3-3-3-3-|-5-5-5-5-5-5-7-7-7-5-5-5-o-||
|-------------------------|---------------------------||
  e e e e e e e e e e e e   e e e e e e e e e e e e

   16/8
||-----------------------------------|---------------------------------|
||-o-9-9-9-7-7-7-6-6-6-7-7-7-7-5-----|-9-9-9-7-7-7-6-6-6-7-7-7-7-5-----|
||-o-----------------------------8---|-----------------------------8---|
||-----------------------------------|---------------------------------|
     e e e e e e e e e e e e e e e E   e e e e e e e e e e e e e e e E

  12/8
|1,2.
|-------------------------|---------------------------||
|-------------------------|-------------------------o-||
|-7-7-7-7-7-7-7-7-7-7-7-7-|-7-7-7-7-7-7-7-7-7-7-7-7-o-||
|-----------------------0-|-----------------------0---||
  e e e e e e e e e e e e   e e e e e e e e e e e e

 4/4  ca 114 bpm (Intro feel)
|3.
|-------------------------|--------------------|---------------------------|
|-------------------------|--------------------|---------------------------|
|-7-7-7-7-7-7-7-7-7-7-7-7-|-7-7-7-7-7-3-3-5--7-|-(7)-7-7-7-7-7-7-7-7-7-7-7-|
|-------------------------|--------------------|---------------------------|
  e s s e s s e s s e s s   e s s e e e e e. s   (e) s s e s s e s s e s s

                       verse 12
|-------------------||-------------------------|---------------------------|
|-------------------||-------------------------|-----------------------4---|
|-7-7-7-7-7-7-3-3-5-||-7-7-7-7-7-7-7-7-7-7-7-7-|-7-7-7-7-7-7-7-7-7-5-7---5-|
|-------------------||-------------------------|---------------------------|
  e s s e s s e e q    e s s e s s e s s e s s   e s s e s s e s s s s s s

|-------------------------|---------------------------|
|-------------------------|-----------------------4---|
|-7-7-7-7-7-7-7-7-7-7-7-7-|-3-3-3-3-3-3-3-3-3-5-7---5-|
|-------------------------|---------------------------|
  e s s e s s e s s e s s   e s s e s s e s s s s s s

|-------------------------|-------------------------|
|-------------------------|-------------------------|
|-7-7-7-7-7-7-7-7-7-7-7-7-|-7-7-7-7-7-7-7-7-7-7-7-7-|
|-------------------------|-------------------------|
  e s s e s s e s s e s s   e s s e s s e s s e s s

|-------------------------|---------------------------|
|-------------------------|-----------------------4---|
|-3-3-3-3-3-3-3-3-3-3-3-3-|-5-5-5-5-5-5-5-5-5-5-7---5-|
|-------------------------|---------------------------|
  e s s e s s e s s e s s   e s s e s s e s s s s s s

|-------------------------|-----------------------||
|-------------------------|-----------------------||
|-7-7-7-7-7-7-7-7-7-7-7-7-|-7-7-7-7-7-7-7-7-7-7-5-||
|-------------------------|-----------------------||
  e s s e s s e s s e s s   e s s e s s e s s e e

  verse 13
|-------------------------|-------------------------|
|-------------------------|---------------------4---|
|-7-7-7-7-7-7-7-7-7-7-7-7-|-7-7-7-7-7-7-7-7-5-7---5-|
|-------------------------|-------------------------|
  e s s e s s e s s e s s   e s s e s s e e s s s s

|-----------------------|---------------------------|
|-----------------------|-----------------------4---|
|-7-7-7-7-7-7-7-7-7-7-7-|-3-3-3-3-3-3-3-3-3-5-7---5-|
|-----------------------|---------------------------|
  e s s e s s e s s e e   e s s e s s e s s s s s s

|-------------------------|---------------------||
|-------------------------|---------------------||
|-7-7-7-7-7-7-7-7-7-7-7-7-|-7-7-7-7-7-7-7-7-7-7-||
|-------------------------|---------------------||
  e s s e s s e s s e s s   e s s e s s e s s q

  interlude
|-----------------------4-|-------------------------|
|-5-4---4-5-5-5-5-4---4---|-5-4---4-5-5-5-5-4---4---|
|-----7-------------7-----|-----7-------------7---5-|
|-------------------------|-------------------------|
  s s s s e s s s s s s q   s s s s e s s s s s s q
          .                         .

|-----------------------4-|---------------------------|
|-5-4---4-5-5-5-5-4---4---|-5-4---4-5-5-5-5-5-----4---|
|-----7-------------7-----|-----7-------------5-7---7-|
|-------------------------|---------------------------|
  s s s s e s s s s s s q   s s s s e s s e e s s s s
          .                         .     . .

|---------------------------|-----------------------|
|---------------------------|-----------------------|
|-(7)-7-7-7-7-7-7-7-7-7-7-7-|-7-7-7-7-7-7-7-7-7-7-5-|
|---------------------------|-----------------------|
  (e) s s e s s e s s e s s   e s s e s s e s s e e

|-----------------------|-----------------------|
|-----------------------|-----------------------|
|-3-3-3-3-3-3-3-3-3-3-3-|-5-5-5-5-5-5-5-5-5-5-5-|
|-----------------------|-----------------------|
  e s s e s s e s s e e   e s s e s s e s s e e

|-----------------------|-------------------------|
|-----------------------|---------------------4---|
|-3-3-3-3-3-3-3-3-3-3-3-|-5-5-5-5-5-5-5-5-5-7---7-|
|-----------------------|-------------------------|
  e s s e s s e s s e e   e s s e s s e e s s s s
                                      . .

|---------------------------|-----------------------||
|---------------------------|-----------------------||
|-(7)-7-7-7-7-7-7-7-7-7-7-7-|-7-7-7-7-7-7-7-7-7-7-5-||
|---------------------------|-----------------------||
  (e) s s e s s e s s e s s   e s s e s s e s s e e

  verse 14
|-------------------------|---------------------------|
|-------------------------|-----------------------4---|
|-7-7-7-7-7-7-7-7-7-7-7-7-|-7-7-7-7-7-7-7-7-7-5-7---5-|
|-------------------------|---------------------------|
  e s s e s s e s s e s s   e s s e s s e s s s s s s

|-------------------------|---------------------------|
|-------------------------|-----------------------4---|
|-7-7-7-7-7-7-7-7-7-7-7-7-|-7-7-7-7-7-7-7-7-7-5-7---5-|
|-------------------------|---------------------------|
  e s s e s s e s s e s s   e s s e s s e s s s s s s

|-------------------------|---------------------------|
|-------------------------|-----------------------4---|
|-7-7-7-7-7-7-7-7-7-7-7-7-|-7-7-7-7-7-7-7-7-7-5-7---5-|
|-------------------------|---------------------------|
  e s s e s s e s s e s s   e s s e s s e s s s s s s

|-------------------------|-------------------------|
|-------------------------|-------------------------|
|-7-7-7-7-7-7-7-7-7-7-7-7-|-7-7-7-7-7-7-7-7-7-7-7-7-|
|-------------------------|-------------------------|
  e s s e s s e s s e s s   e s s e s s e s s e s s

|-------------------------|-------------------------|
|-------------------------|-------------------------|
|-3-3-3-3-3-3-3-3-3-3-3-3-|-5-5-5-5-5-5-5-5-5-5-5-5-|
|-------------------------|-------------------------|
  e s s e s s e s s e s s   e s s e s s e s s e s s

|-------------------------|---------------------------|
|-------5-4---------------|---------5-4---------------|
|-7-7-7-----7-5-7-7-7-5-7-|-(7)-7-7-----7-5-7-7-7-5-7-|
|-------------------------|---------------------------|
  e s s s s s s e s s e e   (e) s s s s s s e s s e e
  .             .

|-------------------------|-------------------------|
|-------------------------|-------------------------|
|-3-3-3-3-3-3-3-3-3-3-3-3-|-5-5-5-5-5-5-5-5-5-5-5-5-|
|-------------------------|-------------------------|
  e s s e s s e s s e s s   e s s e s s e s s e s s

|-------------------------|---------------------------||
|-------5-4---------------|---------5-4---------------||
|-7-7-7-----7-5-7-7-7-5-7-|-(7)-7-7-----7-5-7-7-7-5-5-||
|-------------------------|---------------------------||
  e s s s s s s e s s e e   (e) s s s s s s e s s e e
  .             .

  verse 15
|-------------------------|---------------------------|
|-------------------------|-----------------------4---|
|-7-7-7-7-7-7-7-7-7-7-7-7-|-7-7-7-7-7-7-7-7-7-5-7---5-|
|-------------------------|---------------------------|
  e s s e s s e s s e s s   e s s e s s e s s s s s s

|-------------------------|---------------------------|
|-------------------------|-----------------------4---|
|-7-7-7-7-7-7-7-7-7-7-7-7-|-7-7-7-7-7-7-7-7-7-5-7---5-|
|-------------------------|---------------------------|
  e s s e s s e s s e s s   e s s e s s e s s s s s s

|-------------------------|---------------------------|
|-------------------------|-----------------------4---|
|-7-7-7-7-7-7-7-7-7-7-7-7-|-7-7-7-7-7-7-7-7-7-5-7---5-|
|-------------------------|---------------------------|
  e s s e s s e s s e s s   e s s e s s e s s s s s s

|-------------------------|-------------------------|
|-------------------------|-------------------------|
|-7-7-7-7-7-7-7-7-7-7-7-7-|-7-7-7-7-7-7-7-7-7-7-7-7-|
|-------------------------|-------------------------|
  e s s e s s e s s e s s   e s s e s s e s s e s s

|-------------------------|-------------------------|
|-------------------------|-------------------------|
|-3-3-3-3-3-3-3-3-3-3-3-3-|-5-5-5-5-5-5-5-5-5-5-5-5-|
|-------------------------|-------------------------|
  e s s e s s e s s e s s   e s s e s s e s s e s s

|-------------------------|---------------------------|
|-------5-4---------------|---------5-4---------------|
|-7-7-7-----7-5-7-7-7-5-7-|-(7)-7-7-----7-5-7-7-7-5-5-|
|-------------------------|---------------------------|
  e s s s s s s e s s e e   (e) s s s s s s e s s e e
  .             .

|-------------------------|-----------------------|
|-------------------------|-----------------------|
|-3-3-3-3-3-3-3-3-3-3-3-3-|-5-5-5-5-5-5-5-5-5-5-5-|
|-------------------------|-----------------------|
  e s s e s s e s s e s s   e s s e s s e s s e e
                    rit-----------------------------

          Harm.--------
|--------------5---------------||
|------------5---5-------------||
|-7--------5-------5-----------||
|-0------------------5---------||
          let ring -------
Copyright Wilbert Pol (wfpol@cs.ruu.nl)
Tab from Maiden World - (http://www.maiden-world.com/)
Click here for printable version



You are here: Home > Tabs > Iron Maiden - Rime Of The Ancient Mariner Bass Tab


All content, images and other resources are the property of their respective copyright holders
Specific website content & style is copyright © 2003-2018 maiden-world.com, All Rights Reserved
Admin E-mail: admin AT maiden-world DOT com , Site Design by Jon Simpson