www.maiden-world.com
Site
Home
Forum
Wiki
DC Hub
Donate
Links
Contact
About

Content
Albums
Articles
Bootleg DB
Concerts/Gigs
Collectables
Merchandise
Lyrics
Tabs
Tribute Albums
Videos
Ed Hunter
Concert Tickets

Downloads
Mobile
Wallpaper
Bootleg Manager
Other Downloads

Maiden World - Iron Maiden news, discussion, information and articles
Iron Maiden - The Loneliness Of The Long Distance Runner Bass Tab

You are here: Home > Iron Maiden Tabs > Iron Maiden - The Loneliness Of The Long Distance Runner Bass Tab

Information

About this tab
Song: Iron Maiden - The Loneliness Of The Long Distance Runner
Author: Guilherme Braga (bass@ez-poa.com.br)
Type: Bass
Album: Somewhere In Time
Track no: 5

Copyright

This tab is the author's own work and represents their interpretation of the song. You may only use this file for private study, scholarship, or research.


Tab

Click here for printable version
Intro
|-----------------------------------|-----------------------------------------| 
|*---------------------------------*|*---------------------------------------*|
|*-7-7-7-7-3-3-3-3-5-5-5-5-7-7-5-5-*|*-10-10-10-10-6-6-6-6-8-8-8-8-10-10-8-8-*|
|-----------------------------------|-----------------------------------------|
 Play 2x                              Play 2x                   

|-----------------------------------|-----------------------------------------|
|*---------------------------------*|*---------------------------------------*|
|*-7-7-7-7-3-3-3-3-5-5-5-5-7-7-5-5-*|*-10-10-10-10-6-6-6-6-8-8-8-8-10-10-8-8-*|
|-----------------------------------|-----------------------------------------|
 Play 2x                             Play 2x

|--------------------------------------------------------------------
|*---------------------------------------------------------8-7-5---5-
|*-5-5-5-5-5-5-5-5-5-5-7-5-5-5-5-5-5-5-5-8-5-5-5-5-5-5-5-5-------8---
|--------------------------------------------------------------------
   1."Tough of the track.."
   2."Makes you run..."

-----------------------------------------------------------------------
---------------------------------------------------------------8-7-5---
-8-7---5-5-5-5-5-5-5-5-5-5-7-5-5-5-5-5-5-5-5-8-5-5-5-5-5-5-5-5-------8-
-----8-----------------------------------------------------------------
                                                       
----------------------------------------------------------------------
-5-----------5-7-8-7------------------------9-------------------------
---8-7-5-7-8---------8-7-7-7-7-7-7-7-10-9-7---10-7-7-7-7-7-7-7-10-9-7-
----------------------------------------------------------------------
                                                                        
---------------------------------------------------------------|
-9--------------------------11--------------------------11----*|
---10-9-9-9-9-9-9-9-12-11-9----12-9-9-9-9-9-9-9-12-11-9----12-*|
---------------------------------------------------------------|
 Play 2x                                                                

|--------------------------------------------------------------------
|*-------------------------------------------------------------------
|*-5-5-5-5-5-5-5-5-5-5-5-5-5-5-5-5-1-1-1-1-1-1-1-1-1-1-1-1-1-1-1-1-3-
|--------------------------------------------------------------------
   1."Run on and on..."                                                   
   2."The loneliness..."

---------------------------------------------------------------|
--------------------------------------------------------------*|
3-3-3-3-3-3-3-3-3-3-3-3-3-3-3---------------------------------*|
------------------------------1-1-1-1-1-1-1-1-1-1-1-1-1-1-1-1--|
 Play 2x                                                                
                                                                        
|--------------------------------------------------------------------
|*-------------------------------------------------------------------
|*-5-5-5-5-5-5-5-5-5-5-5-5-5-5-5-5-5-5-5-5-5-5-5-5-5-5-5-5-5-5-5-5-3-
|--------------------------------------------------------------------

----------------------------------------------------------------|
---------------------------------------------------------------*|
-3-3-3-3-3-3-3-3-3-3-3-3-3-3-3-3-3-3-3-3-3-3-3-3-3-3-3-3-3-3-3-*|
----------------------------------------------------------------|
 Play 2x                                                                
                                                                  
|--------------------------------------------------------------|
|-------------------------------------------------------------*|
|-1-1-1-1-1-1-1-1-1-1-1-1-1-3-5-5-5-5-5-5-5-5-5-5-5-5-5-5-5-5-*|
|--------------------------------------------------------------|
 Play 2x

|--------------------------------------------------------------------
|*-------------------------------------------------------------------
|*-7-7-7-7-7-7-7-7-7-7-7-7-7-7-7-7-7-7-7-7-7-7-7-7-7-7-7-7-7-7-7-7-3-
|--------------------------------------------------------------------
                                                                      
-----------------------------------------------------------------------
-----------------------------------------------------------------------
-3-3-3-3-3-3-3-3-3-3-3-3-3-3-3-3-3-3-3-3-3-3-3-3-3-3-3-3-3-3-3-5-5-5-5-
-----------------------------------------------------------------------
                                                              
-----------------------------------------------------------------------
-----------------------------------------------------------------------
-5-5-5-5-5-5-5-5-5-5-5-5-5-5-5-5-5-5-5-5-5-5-5-5-5-5-5-5-0-0-0-0-0-0-0-
-----------------------------------------------------------------------
                                                                        
---------------------------------------------------|
--------------------------------------------------*|
0-0-0-0-0-0-0-0-0-3-3-3-3-3-3-3-3-3-3-3-3-3-3-3-3-*|
---------------------------------------------------|
 Play 2x                                                              

|-----------------------------------------------------------------------
|-----------------------------------------------------------------------
|-7-7-7-7-7-7-7-7-7-7-7-7-7-7-7-7-3-3-3-3-3-3-3-3-3-3-3-3-3-3-3-3-5-5-5-
|-----------------------------------------------------------------------
 "I've got to keep running..."

-----------------------------------------------------------------------
-----------------------------------------------------------------------
-5-5-5-5-5-5-5-5-5-5-5-5-5-0-0-0-0-0-0-0-0-3-3-3-3-3-3-5-5-7-7-7-7-7-7-
-----------------------------------------------------------------------
                                                                        
-------------------------------------------------------------------------
-------------------------------------------------------------------------
-7-7-7-7-7-7-7-7-7-7-3-3-3-3-3-3-3-3-3-3-3-3-3-3-3-3-0-0-0-0-0-0-0-0-0-0-
-------------------------------------------------------------------------

---------------------------------------------|
---------------------------------------------|
-0-0-0-0-0-0-3-3-3-3-3-3-3-3-5-5-5-5-5-5-5-5-|
---------------------------------------------|
  
    Guitar Solo                                                         
|--------------------------------------------------------------------
|*-------------------------------------------------------------------
|*-10-10-10-10-10-10-10-10-5-5-5-5-5-5-5-5-7-7-7-7-7-7-7-7-3-3-3-3-3-
|--------------------------------------------------------------------
                                                             
-----------------------------------------------------------------------
-----------------------------------------------------------------------
-3-3-3-10-10-10-10-10-10-10-10-5-5-5-5-5-5-5-5-3-3-3-3-3-3-3-3-3-3-3-3-
-----------------------------------------------------------------------
                                                                        
----------|
---------*|
-3-3-3-3-*|
----------|
 Play 2x

|------------------------------------------------------------------
|*-----------------------------------------------------------------
|*-12-12-12-12-12-12-12-12-8-8-8-8-8-8-8-8-------------------------
|------------------------------------------10-10-10-10-10-10-10-10-
                                                                        
-----------------------------------------------------------------------
-----------------------------------------------------------------------
-------------------------12-12-12-12-12-12-12-12-8-8-8-8-8-8-8-8-9-9-9-
-10-10-10-10-10-10-10-10-----------------------------------------------

----------------------------|---------------------------------|
---------------------------*|---------------------------------|
-9-9-9-9-9-9-9-9-9-9-9-9-9-*|-9-9-9-9-9-9-9-9-9-9-9-9-9-9-9-9\|
----------------------------|---------------------------------|
 Play 2x                                                      
                                                                        
|-----------------------------------------------------------------------
|---------------------------------------------------------8-7-5---5-----
|-5-5-5-5-5-5-5-5-5-5-7-5-5-5-5-5-5-5-5-8-5-5-5-5-5-5-5-5-------8---8-7-
|-----------------------------------------------------------------------
  "Run over styles..."
                                                                        
-----------------------------------------------------------------------
-----------------------------------------------------------8-7-5---5---
---5-5-5-5-5-5-5-5-5-5-7-5-5-5-5-5-5-5-5-8-5-5-5-5-5-5-5-5-------8---8-
-8---------------------------------------------------------------------

-----------------------------------------------------------------------
---------5-7-8-7------------------------9-------------------------9----
-7-5-7-8---------8-7-7-7-7-7-7-7-10-9-7---10-7-7-7-7-7-7-7-10-9-7---10-
-----------------------------------------------------------------------
                                                                        
---------------------------------------------------------|
-----------------------11--------------------------11----|
-9-9-9-9-9-9-9-12-11-9----12-9-9-9-9-9-9-9-12-11-9----12-|
---------------------------------------------------------|

|----------------------------------------------------------------------
|*---------------------------------------------------------------------
|*-5-5-5-5-5-5-5-5-5-5-5-5-5-5-5-5-1-1-1-1-1-1-1-1-1-1-1-1-1-1-1-1-3---
|----------------------------------------------------------------------
 1,3."Run on and on..."                                                  
 2,4."The loneliness..."

----------------------------------------------------------------|
---------------------------------------------------------------*|
-3-3-3-3-3-3-3-3-3-3-3-3-3-3-3---------------------------------*|
-------------------------------1-1-1-1-1-1-1-1-1-1-1-1-1-1-1-1--|
 Play 4x

|-----------------------------------|-----------------------------------------|
|*---------------------------------*|*---------------------------------------*|
|*-7-7-7-7-3-3-3-3-5-5-5-5-7-7-5-5-*|*-10-10-10-10-6-6-6-6-8-8-8-8-10-10-8-8-*|
|-----------------------------------|-----------------------------------------|
 Play 2x                             Play 2x
                                                                        
|-------------------------------------------------------------------|
|*-----------------------------------------------------------------*|
|*-7-7-7-7-7-7-7-7-3-3-3-3-3-3-3-3-5-5-5-5-5-5-5-5-7-7-7-7-5-5-5-5-*|
|-------------------------------------------------------------------|
 Play 7x                                                                
                                                                     
|-----------------------------------------9---9-----------------|
|---------------------------------------------------------------|
|-7-7-7-7-7-7-7-7-3-3-3-3-3-3-3-3-5-7---7---7-------------------|
|-------------------------------------0---------0-0-0-0-0-0-0-0-|
Copyright Guilherme Braga (bass@ez-poa.com.br)
Tab from Maiden World - (http://www.maiden-world.com/)
Click here for printable version



You are here: Home > Tabs > Iron Maiden - The Loneliness Of The Long Distance Runner Bass Tab


All content, images and other resources are the property of their respective copyright holders
Specific website content & style is copyright © 2003-2018 maiden-world.com, All Rights Reserved
Admin E-mail: admin AT maiden-world DOT com , Site Design by Jon Simpson