www.maiden-world.com
Site
Home
Forum
Wiki
DC Hub
Donate
Links
Contact
About

Content
Albums
Articles
Bootleg DB
Concerts/Gigs
Collectables
Merchandise
Lyrics
Tabs
Tribute Albums
Videos
Ed Hunter
Concert Tickets

Downloads
Mobile
Wallpaper
Bootleg Manager
Other Downloads

Maiden World - Iron Maiden news, discussion, information and articles
Iron Maiden - Tail Gunner Guitar Tab

You are here: Home > Iron Maiden Tabs > Iron Maiden - Tail Gunner Guitar Tab

Information

About this tab
Song: Iron Maiden - Tail Gunner
Author: Augusto Raffaelli (rafaelli@act.com.br)
Type: Guitar
Album: No Prayer For The Dying
Track no: 1

Author Comments

4/4 Timing

Copyright

This tab is the author's own work and represents their interpretation of the song. You may only use this file for private study, scholarship, or research.


Tab

Click here for printable version
INTRO
Both Guitars
E|---------------------------------|---------------------------------|
B|---------------------------------|---------------------------------|
G|---------------------------------|---------------------------------|
D|-11--11--11--11--11--11--11--11--|-11--11--11--11--11--11--11--11--|
A|-9---9---9---9---9---9---9---9---|-9---9---9---9---9---9---9---9---|
E|---------------------------------|---------------------------------|

|
|Both Guitars
|
E|---------------------------------|---------------------------------|
B|---------------------------------|---------------------------------|
G|---------------------------------|---------------------------------|
D|-11--11--11--11--11--11--11--11--|-11--11--11--11--11--11--11--11--|
A|-9---9---9---9---9---9---9---9---|-9---9---9---9---9---9---9---9---|
E|---------------------------------|---------------------------------|

|
|Both Guitars
|
E|---------------------------------|---------------------------------|
B|---------------------------------|---------------------------------|
G|---------------------------------|---------------------------------|
D|-11--11--11--11--11--11--11--11--|-11--11--11--11--11--11--11--11--|
A|-9---9---9---9---9---9---9---9---|-9---9---9---9---9---9---9---9---|
E|---------------------------------|---------------------------------|

|
|Both Guitars
|
E|---------------------------------|---------------------------------|
B|---------------------------------|---------------------------------|
G|---------------------------------|---------------------------------|
D|-11--11--11--11--11--11--11--11--|-11--11--11--11--11--11--11--11--|
A|-9---9---9---9---9---9---9---9---|-9---9---9---9---9---9---9---9---|
E|---------------------------------|---------------------------------|

|
|Both Guitars
|
E|---------------------------------|---------------------------------|
B|---------------------------------|---------------------------------|
G|---------------------------------|---------------------------------|
D|-11--11--11--11--11--11--11--11--|-11--11--11--11--11--11--11--11--|
A|-9---9---9---9---9---9---9---9---|-9---9---9---9---9---9---9---9---|
E|---------------------------------|---------------------------------|

| |
|Both Guitars |Guitar 1
| |
E|---------------------------------|---------------------------------|
B|---------------------------------|---------------------11--11--11--|
G|---------------------------------|---------------------11--11--11--|
D|-11--11--11--11--11--11--11--11--|-11--11--11--11--11--11--11--11--|
A|-9---9---9---9---9---9---9---9---|-9---9---9---9---9---9---9---9---|
E|---------------------------------|---------------------------------|
|
|Guitar 2
|
|---------------------------------|
|---------------------7---7---7---|
|---------------------6---6---6---|
|---------------------8---8---8---|
|---------------------------------|
|---------------------------------|

|
|Guitar 1
|
E|---------------------------------|---------------------------------|
B|-11\-9-------9-------------------|-(9)-----------------------------|
G|-11\-9-------9-------------------|-(9)-----------------------------|
D|-11\-9-------9-------------------|-(9)-----------------------------|
A|-9-\-7-------7-------------------|-(7)-----------------------------|
E|---------------------------------|---------------------------------|
|
|Guitar 2
|
E|---------------------------------|---------------------------------|
B|-7-\-5-------5-------------------|-(5)-----------------------------|
G|-6-\-4-------4-------------------|-(4)-- ---------------------------|
D|-8-\-6-------6-------------------|-(6)-----------------------------|
A|---------------------------------|---------------------------------|
E|---------------------------------|---------------------------------|

|
|Guitar 1
|
E|---------------------------------|---------------------------------|
B|-(9)-----------------------------|-(9)-----------------9---9---9---|
G|-(9)-----------------------------|-(9)-----------------9---9---9---|
D|-(9)-----------------------------|-(9)-----------------9---9---9---|
A|-(7)-----------------------------|-(7)-----------------7---7---7---|
E|---------------------------------|---------------------------------|
|
|Guitar 2
|
E|---------------------------------|---------------------------------|
B|-(5)-----------------------------|-(5)-----------------5---5---5---|
G|-(4)-----------------------------|-(4)-----------------4---4---4---|
D|-(6)-----------------------------|-(6)-----------------6---6---6---|
A|---------------------------------|---------------------------------|
E|---------------------------------|---------------------------------|

|
|Guitar 1
|
E|---------------------------------|---------------------------------|
B|-9-/-11--------------------------|-(11)----------------------------|
G|-9-/-11--------------------------|-(11)----------------------------|
D|-9-/-11--------------------------|-(11)----------------------------|
A|-7-/-9---------------------------|-(9)-----------------------------|
E|---------------------------------|---------------------------------|
|
|Guitar 2
|
E|---------------------------------|---------------------------------|
B|-5-/-7---------------------------|-(7)-----------------------------|
G|-4-/-6---------------------------|-(6)-----------------------------|
D|-6-/-8---------------------------|-(8)-----------------------------|
A|---------------------------------|---------------------------------|
E|---------------------------------|---------------------------------|

|
|Guitar 1
|
E|---------------------------------|---------------------------------|
B|-(11)----------------------------|-(11)----------------------------|
G|-(11)----------------------------|-(11)----------------------------|
D|-(11)----------------------------|-(11)----------------------------|
A|-(9)-----------------------------|-(9)-----------------------------|
E|---------------------------------|---------------------------------|
|
|Guitar 2
|
E|---------------------------------|---------------------------------|
B|-(7)-----------------------------|-(7)-----------------------------|
G|-(6)-----------------------------|-(6)-----------------------------|
D|-(8)-----------------------------|-(8)-----------------------------|
A|---------------------------------|---------------------------------|
E|---------------------------------|---------------------------------|

|
|Guitar 1
|
E|---------------------------------|---------------------------------|
B|---------------------------------|---------------------------------|
G|-3---4---4---4---3-------3---4---|-4---4---3-------3---4---4---4---|
D|---------------------4-----------|-------------4-------------------|
A|---------------------------------|---------------------------------|
E|---------------------------------|---------------------------------|
|
|Guitar 2
|
E|---------------------------------|---------------------------------|
B|---------------------------------|---------------------------------|
G|---------------------------------|---------------------------------|
D|---------------------------------|---------------------------------|
A|-1---2---2---2---1-------1---2---|-2---2---1-------1---2---2---2---|
E|---------------------2-----------|-------------2-------------------|

|
|Guitar 1
|
E|---------------------------------|---------------------------------|
B|---------------------------------|-2---2---2---2---2---2---2---2---|
G|-4---3---------------------------|---------------------------------|
D|---------4---11--11--11--11--11--|-4---4---4---4---4---4---4---4---|
A|-------------9---9---9---9---9---|---------------------------------|
E|---------------------------------|---------------------------------|
|
|Guitar 2
|
E|-------------------------2-------|---------------------------------|
B|-------------5-------------------|---------------------------------|
G|---------------------------------|---------------------------------|
D|---------------------------------|-8-------------------------------|
A|---------------------------------|---------------------------------|
E|---------------------------------|---------------------------------|

|
|Guitar 1
|
E|---------------------------------|---------------------------------|
B|---------------------------------|---------------------------------|
G|-3---4---4---4---3-------3---4---|-4---4---3-------3---4---4---4---|
D|---------------------4-----------|-------------4-------------------|
A|---------------------------------|---------------------------------|
E|---------------------------------|---------------------------------|
|
|Guitar 2
|
E|---------------------------------|---------------------------------|
B|---------------------------------|---------------------------------|
G|---------------------------------|---------------------------------|
D|---------------------------------|---------------------------------|
A|-1---2---2---2---1-------1---2---|-2---2---1-------1---2---2---2---|
E|---------------------2-----------|-------------2-------------------|

|
|Guitar 1
|
E|---------------------------------|---------------------------------|
B|---------------------------------|-2---2---2---2---2---11--11--11--|
G|-4---3---------------------------|---------------------11--11--11--|
D|---------4---11--11--11--11--11--|-4---4---4---4---4---11--11--11--|
A|-------------9---9---9---9---9---|---------------------9---9---9---|
E|---------------------------------|---------------------------------|
|
|Guitar 2
|
E|-------------------------2-------|---------------------------------|
B|-------------5-------------------|---------------------------------|
G|---------------------------------|---------------------------------|
D|---------------------------------|-8-------------------------------|
A|---------------------------------|---------------------------------|
E|---------------------------------|---------------------------------|

|
|Guitar 1
|
E|---------------------------------|---------------------------------|
B|-11\-9-------9-------------------|-(9)-----------------------------|
G|-11\-9-------9-------------------|-(9)-----------------------------|
D|-11\-9-------9-------------------|-(9)-----------------------------|
A|-9-\-7-------7-------------------|-(7)-----------------------------|
E|---------------------------------|---------------------------------|
|
|Guitar 2
|
E|---------------------------------|---------------------------------|
B|-7-\-5-------5-------------------|-(5)-----------------------------|
G|-6-\-4-------4-------------------|-(4)-----------------------------|
D|-8-\-6-------6-------------------|-(6)-----------------------------|
A|---------------------------------|---------------------------------|
E|---------------------------------|---------------------------------|
|
|Guitar 3
|
E|---------------------------------|---------------------------------|
B|-------------------------0-------|-(0)-----------------------------|
G|-------------3-------------------|-----3---------------------------|
D|-2-------------------------------|-----------------2---------------|
A|---------------------------------|---------------------------------|
E|---------------------------------|---------------------------------|

|
|Guitar 1
|
E|---------------------------------|---------------------------------|
B|-(9)-----------------------------|-(9)-----------------9---9---9---|
G|-(9)-----------------------------|-(9)-----------------9---9---9---|
D|-(9)-----------------------------|-(9)-----------------9---9---9---|
A|-(7)-----------------------------|-(7)-----------------7---7---7---|
E|---------------------------------|---------------------------------|
|
|Guitar 2
|
E|---------------------------------|---------------------------------|
B|-(5)-----------------------------|-(5)-----------------5---5---5---|
G|-(4)-----------------------------|-(4)-----------------4---4---4---|
D|-(6)-----------------------------|-(6)-----------------6---6---6---|
A|---------------------------------|---------------------------------|
E|---------------------------------|---------------------------------|
|
|Guitar 3
|
E|---------------------------------|---------------------------------|
B|-------------------------0-------|-(0)-----------------------------|
G|-------------3-------------------|-----3---------------------------|
D|-2-------------------------------|-----------------2---------------|
A|---------------------------------|---------------------------------|
E|---------------------------------|---------------------------------|

|
|Guitar 1
|
E|---------------------------------|---------------------------------|
B|-9-/-11--------------------------|-(11)----------------------------|
G|-9-/-11--------------------------|-(11)----------------------------|
D|-9-/-11--------------------------|-(11)----------------------------|
A|-7-/-9---------------------------|-(9)-----------------------------|
E|---------------------------------|---------------------------------|
|
|Guitar 2
|
E|---------------------------------|---------------------------------|
B|-5-/-7---------------------------|-(7)-----------------------------|
G|-4-/-6---------------------------|-(6)-----------------------------|
D|-6-/-8---------------------------|-(8)-----------------------------|
A|---------------------------------|---------------------------------|
E|---------------------------------|---------------------------------|
|
|Guitar 3
|
E|---------------------------------|---------------------------------|
B|-------------------------0-------|-(0)-----------------------------|
G|-------------3-------------------|-----3---------------------------|
D|-4-------------------------------|-----------------4---------------|
A|---------------------------------|---------------------------------|
E|---------------------------------|---------------------------------|

|
|Guitar 1
|
E|---------------------------------|---------------------------------|
B|-(11)----------------------------|-(11)----------------------------|
G|-(11)----------------------------|-(11)----------------------------|
D|-(11)----------------------------|-(11)----------------------------|
A|-(9)-----------------------------|-(9)-----------------------------|
E|---------------------------------|---------------------------------|
|
|Guitar 2
|
E|---------------------------------|---------------------------------|
B|-(7)-----------------------------|-(7)-----------------------------|
G|-(6)-----------------------------|-(6)-----------------------------|
D|-(8)-----------------------------|-(8)-----------------------------|
A|---------------------------------|---------------------------------|
E|---------------------------------|---------------------------------|
|
|Guitar 3
|
E|---------------------------------|---------------------------------|
B|---------------------------------|---------------------------------|
G|---------------------------------|---------------------------------|
D|-(4)-----------------------------|-(4)-----------------------------|
A|---------------------------------|---------------------------------|
E|---------------------------------|---------------------------------|


1st VERSE
|
|Guitar 1
|
E|---------------------------------|---------------------------------|
B|---------------------------------|---------------------------------|
G|-3---4---4---4---3-------3---4---|-4---4---3-------3---4---4---4---|
D|---------------------4-----------|-------------4-------------------|
A|---------------------------------|---------------------------------|
E|---------------------------------|---------------------------------|
|
|Guitar 2
|
E|---------------------------------|---------------------------------|
B|---------------------------------|---------------------------------|
G|---------------------------------|---------------------------------|
D|---------------------------------|---------------------------------|
A|-1---2---2---2---1-------1---2---|-2---2---1-------1---2---2---2---|
E|---------------------2-----------|-------------2-------------------|

|
|Guitar 1
|
E|---------------------------------|---------------------------------|
B|-------------------------11------|-(11)----------------------------|
G|-4---3-------------------11------|-(11)----------------------------|
D|---------4---4-----------11------|-(11)----------------------------|
A|-------------------------9-------|-(9)-----------------------------|
E|---------------------------------|---------------------------------|
|
|Guitar 2
|
E|---------------------------------|---------------------------------|
B|-------------------------11------|-(11)----------------------------|
G|-------------------------11------|-(11)----------------------------|
D|-------------------------11------|-(11)----------------------------|
A|-2---1-------------------9-------|-(9)-----------------------------|
E|---------2---2-------------------|---------------------------------|

|
|Guitar 1
|
E|---------------------------------|---------------------------------|
B|---------------------------------|---------------------------------|
G|-3---4---4---4---3-------3---4---|-4---4---3-------3---4---4---4---|
D|---------------------4-----------|-------------4-------------------|
A|---------------------------------|---------------------------------|
E|---------------------------------|---------------------------------|
|
|Guitar 2
|
E|---------------------------------|---------------------------------|
B|---------------------------------|---------------------------------|
G|---------------------------------|---------------------------------|
D|---------------------------------|---------------------------------|
A|-1---2---2---2---1-------1---2---|-2---2---1-------1---2---2---2---|
E|---------------------2-----------|-------------2-------------------|

| |
|Guitar 1 |Both Guitars
| |
E|---------------------------------|---------------------------------|
B|-------------------------11------|-(11)----------------11--11--11--|
G|-4---3-------------------11------|-(11)----------------11--11--11--|
D|---------4---4-----------11------|-(11)----------------11--11--11--|
A|-------------------------9-------|-(9)-----------------9---9---9---|
E|---------------------------------|---------------------------------|
|
|Guitar 2
|
E|---------------------------------|
B|-------------------------11------|
G|-------------------------11------|
D|-------------------------11------|
A|-2---1-------------------9-------|
E|---------2---2-------------------|

|
|Both Guitars
|
E|---------------------------------|---------------------------------|
B|-11\-9---------------------------|-(9)-----------------------------|
G|-11\-9---------------------------|-(9)-----------------------------|
D|-11\-9---------------------------|-(9)-----------------------------|
A|-9-\-7---------------------------|-(7)-----------------------------|
E|---------------------------------|---------------------------------|

|
|Both Guitars
|
E|-------------4-----------6-------|---------------------------------|
B|-5-----------5-----------7-------|---------------------------------|
G|-4-------------------------------|-----4---3-------4---3-----------|
D|---------------------------------|-------------4-----------4-------|
A|---------------------------------|---------------------------------|
E|---------------------------------|---------------------------------|

|
|Both Guitars
|
E|---------------------------------|---------------------------------|
B|-9-/-11--------------------------|-(11)----------------------------|
G|-9-/-11--------------------------|-(11)----------------------------|
D|-9-/-11--------------------------|-(11)----------------------------|
A|-7-/-9---------------------------|-(9)-----------------------------|
E|---------------------------------|---------------------------------|

|
|Both Guitars
|
E|---------------------------------|---------------------------------|
B|-(11)----------------------------|-(11)----------------------------|
G|-(11)----------------------------|-(11)----------------------------|
D|-(11)----------------------------|-(11)----------------------------|
A|-(9)-----------------------------|-(9)-----------------------------|
E|---------------------------------|---------------------------------|

|
|Guitar 1
|
E|---------------------------------|---------------------------------|
B|---------------------------------|---------------------------------|
G|-3---4---4---4---3-------3---4---|-4---4---3-------3---4---4---4---|
D|---------------------4-----------|-------------4-------------------|
A|---------------------------------|---------------------------------|
E|---------------------------------|---------------------------------|
|
|Guitar 2
|
E|---------------------------------|---------------------------------|
B|---------------------------------|---------------------------------|
G|---------------------------------|---------------------------------|
D|---------------------------------|---------------------------------|
A|-1---2---2---2---1-------1---2---|-2---2---1-------1---2---2---2---|
E|---------------------2-----------|-------------2-------------------|

|
|Guitar 1
|
E|---------------------------------|---------------------------------|
B|-------------------------11------|-(11)----------------------------|
G|-4---3-------------------11------|-(11)----------------------------|
D|---------4---4-----------11------|-(11)----------------------------|
A|-------------------------9-------|-(9)-----------------------------|
E|---------------------------------|---------------------------------|
|
|Guitar 2
|
E|---------------------------------|---------------------------------|
B|-------------------------11------|-(11)----------------------------|
G|-------------------------11------|-(11)----------------------------|
D|-------------------------11------|-(11)----------------------------|
A|-2---1-------------------9-------|-(9)-----------------------------|
E|---------2---2-------------------|---------------------------------|

|
|Guitar 1
|
E|---------------------------------|---------------------------------|
B|---------------------------------|---------------------------------|
G|-3---4---4---4---3-------3---4---|-4---4---3-------3---4---4---4---|
D|---------------------4-----------|-------------4-------------------|
A|---------------------------------|---------------------------------|
E|---------------------------------|---------------------------------|
|
|Guitar 2
|
E|---------------------------------|---------------------------------|
B|---------------------------------|---------------------------------|
G|---------------------------------|---------------------------------|
D|---------------------------------|---------------------------------|
A|-1---2---2---2---1-------1---2---|-2---2---1-------1---2---2---2---|
E|---------------------2-----------|-------------2-------------------|

| |
|Guitar 1 |Both Guitars
| |
E|---------------------------------|---------------------------------|
B|-------------------------11------|-(11)----------------11--11--11--|
G|-4---3-------------------11------|-(11)----------------11--11--11--|
D|---------4---4-----------11------|-(11)----------------11--11--11--|
A|-------------------------9-------|-(9)-----------------9---9---9---|
E|---------------------------------|---------------------------------|
|
|Guitar 2
|
E|---------------------------------|
B|-------------------------11------|
G|-------------------------11------|
D|-------------------------11------|
A|-2---1-------------------9-------|
E|---------2---2-------------------|

|
|Both Guitars
|
E|---------------------------------|---------------------------------|
B|-11\-9---------------------------|-(9)-----------------------------|
G|-11\-9---------------------------|-(9)-----------------------------|
D|-11\-9---------------------------|-(9)-----------------------------|
A|-9-\-7---------------------------|-(7)-----------------------------|
E|---------------------------------|---------------------------------|

|
|Both Guitars
|
E|-------------4-----------6-------|-7-----------6-------------------|
B|-5-----------5-----------7-------|-9-----------7-----------5-------|
G|-4-------------------------------|-------------------------4-------|
D|---------------------------------|---------------------------------|
A|---------------------------------|---------------------------------|
E|---------------------------------|---------------------------------|

|
|Both Guitars
|
E|---------------------------------|---------------------------------|
B|-9-/-11--------------------------|-(11)----------------------------|
G|-9-/-11--------------------------|-(11)----------------------------|
D|-9-/-11--------------------------|-(11)----------------------------|
A|-7-/-9---------------------------|-(9)-----------------------------|
E|---------------------------------|---------------------------------|

|
|Both Guitars
|
E|---------------------------------|---------------------------------|
B|-(11)----------------------------|-(11)----------------------------|
G|-(11)----------------------------|-(11)----------------------------|
D|-(11)----------------------------|-(11)----------------------------|
A|-(9)-----------------------------|-(9)-----------------------------|
E|---------------------------------|---------------------------------|


CHORUS
|
|Both Guitars
|
E|---------------------------------|---------------------------------|
B|---------------------------------|---------------------------------|
G|-10----------12----------10------|-----12----------14--------------|
D|-10----------12----------10------|-----12----------14--------------|
A|-8-----------10----------8-------|-----10----------12--------------|
E|---------------------------------|---------------------------------|

|
|Both Guitars
|
E|---------------------------------|---------------------------------|
B|---------------------------------|---------------------------------|
G|-8-----------10----------8-------|-----10----------12--------------|
D|-8-----------10----------8-------|-----10----------12--------------|
A|-6-----------8-----------6-------|-----8-----------10--------------|
E|---------------------------------|---------------------------------|

|
|Both Guitars
|
E|---------------------------------|---------------------------------|
B|---------------------------------|---------------------------------|
G|-5-/-7-------7-----------7-------|-----7-----------7-\-5-----------|
D|-5-/-7-------7-----------7-------|-----7-----------7-\-5-----------|
A|-3-/-5---5---5---5---5---5---5---|-5---5---5---5---5-\-3-----------|
E|---------------------------------|---------------------------------|

|
|Both Guitars
|
E|---------------------------------|---------------------------------|
B|---------------------------------|---------------------------------|
G|-5-/-7-------7-----------7-------|-----7-----------7-\-5-----------|
D|-5-/-7-------7-----------7-------|-----7-----------7-\-5-----------|
A|-3-/-5---5---5---5---5---5---5---|-5---5---5---5---5-\-3-----------|
E|---------------------------------|---------------------------------|

|
|Both Guitars
|
E|---------------------------------|---------------------------------|
B|---------------------------------|---------------------------------|
G|-10----------12----------10------|-----12----------14--------------|
D|-10----------12----------10------|-----12----------14--------------|
A|-8-----------10----------8-------|-----10----------12--------------|
E|---------------------------------|---------------------------------|

|
|Both Guitars
|
E|---------------------------------|---------------------------------|
B|---------------------------------|---------------------------------|
G|-8-----------10----------8-------|-----10----------12--------------|
D|-8-----------10----------8-------|-----10----------12--------------|
A|-6-----------8-----------6-------|-----8-----------10--------------|
E|---------------------------------|---------------------------------|

|
|Both Guitars
|
E|---------------------------------|---------------------------------|
B|---------------------------------|---------------------------------|
G|-5-/-7-------7-----------7-------|-----7-----------7-\-5-----------|
D|-5-/-7-------7-----------7-------|-----7-----------7-\-5-----------|
A|-3-/-5---5---5---5---5---5---5---|-5---5---5---5---5-\-3-----------|
E|---------------------------------|---------------------------------|

|
|Both Guitars
|
E|---------------------------------|---------------------------------|
B|---------------------------------|---------------------------------|
G|-5-/-7-------7-----------7-------|-----7-----------7-\-5-----------|
D|-5-/-7-------7-----------7-------|-----7-----------7-\-5-----------|
A|-3-/-5---5---5---5---5---5---5---|-5---5---5---5---5-\-3-----------|
E|---------------------------------|---------------------------------|

|
|Both Guitars
|
E|---------------------------------|---------------------------------|
B|---------------------------------|---------------------------------|
G|-12----------14----------12------|-----14--------------------------|
D|-12----------14----------12------|-----14----------9---------------|
A|-10----------12----------10------|-----12----------9---------------|
E|---------------------------------|-----------------7---------------|

|
|Both Guitars
|
E|---------------------------------|---------------------------------|
B|---------------------------------|---------------------------------|
G|-10----------12----------10------|-----12----------14--------------|
D|-10----------12----------10------|-----12----------14--------------|
A|-8-----------10----------8-------|-----10----------12--------------|
E|---------------------------------|---------------------------------|

|
|Both Guitars
|
E|---------------------------------|---------------------------------|
B|---------------------------------|---------------------------------|
G|-7-/-9-------9-----------9-------|-----9-----------9-\-7-----------|
D|-7-/-9-------9-----------9-------|-----9-----------9-\-7-----------|
A|-5-/-7---7---7---7---7---7---7---|-7---7---7---7---7-\-5-----------|
E|---------------------------------|---------------------------------|

|
|Both Guitars
|
E|---------------------------------|---------------------------------|
B|---------------------------------|---------------------------------|
G|-7---9-------9-----------9-------|-----9-----------9---7-----------|
D|-7---9-------9-----------9-------|-----9-----------9---7-----------|
A|-5-/-7---7---7---7---7---7---7---|-7---7---7---7---7-\-5-----------|
E|---------------------------------|---------------------------------|

|
|Both Guitars
|
E|---------------------------------|---------------------------------|
B|---------------------------------|---------------------------------|
G|-12----------14----------12------|-----14--------------------------|
D|-12----------14----------12------|-----14----------9---------------|
A|-10----------12----------10------|-----12----------9---------------|
E|---------------------------------|-----------------7---------------|

|
|Both Guitars
|
E|---------------------------------|---------------------------------|
B|---------------------------------|---------------------------------|
G|-10----------12----------10------|-----12----------14--------------|
D|-10----------12----------10------|-----12----------14--------------|
A|-8-----------10----------8-------|-----10----------12--------------|
E|---------------------------------|---------------------------------|

|
|Both Guitars
|
E|---------------------------------|---------------------------------|
B|---------------------------------|---------------------------------|
G|-7-/-9-------9-----------9-------|-----9-----------9-\-7-----------|
D|-7-/-9-------9-----------9-------|-----9-----------9-\-7-----------|
A|-5-/-7---7---7---7---7---7---7---|-7---7---7---7---7-\-5-----------|
E|---------------------------------|---------------------------------|

|
|Both Guitars
|
E|---------------------------------|---------------------------------|
B|---------------------------------|---------------------------------|
G|-7---9-------9-----------9-------|-----9-----------9---7-----------|
D|-7---9-------9-----------9-------|-----9-----------9---7-----------|
A|-5-/-7---7---7---7---7---7---7---|-7---7---7---7---7-\-5-----------|
E|---------------------------------|---------------------------------|


INTERLUDE
|
|Guitar 1
|
E|---------------------------------|---------------------------------|
B|---------------------------------|---------------------------------|
G|-------------3-----------5-------|-----3-----------6---5---3-------|
D|-6---4---4-------4---4-------3---|-3-------3---3---------------3---|
A|---------------------------------|---------------------------------|
E|---------------------------------|---------------------------------|
|
|Guitar 2
|
E|---------------------------------|---------------------------------|
B|---------------------------------|---------------------------------|
G|---------------------------------|---------------------------------|
D|---------------------------------|---------------------------------|
A|-------------1-----------3-------|-----1-----------4---3---1-------|
E|-4---2---2-------2---2-------1---|-1-------1---1---------------1---|

|
|Guitar 1
|
E|---------------------------------|---------------------------------|
B|---------------------------------|---------------------------------|
G|-------------3-----------5-------|-----3-----------6---5---3-------|
D|-6---3---3-------3---3-------3---|-3-------3---3-------------------|
A|---------------------------------|---------------------------------|
E|---------------------------------|---------------------------------|
|
|Guitar 2
|
E|---------------------------------|---------------------------------|
B|---------------------------------|---------------------------------|
G|---------------------------------|---------------------------------|
D|---------------------------------|---------------------------------|
A|-------------1-----------3-------|-----1-----------4---3---1-------|
E|-4---1---1-------1---1-------1---|-1-------1---1-------------------|

|
|Guitar 1
|
E|---------------------------------|---------------------------------|
B|---------------------------------|---------------------------------|
G|-------------3-----------5-------|-----3-----------6---5---3-------|
D|-6---4---4-------4---4-------3---|-3-------3---3---------------3---|
A|---------------------------------|---------------------------------|
E|---------------------------------|---------------------------------|
|
|Guitar 2
|
E|---------------------------------|---------------------------------|
B|---------------------------------|---------------------------------|
G|---------------------------------|---------------------------------|
D|---------------------------------|---------------------------------|
A|-------------1-----------3-------|-----1-----------4---3---1-------|
E|-4---2---2-------2---2-------1---|-1-------1---1---------------1---|


|
|Guitar 1
|
E|---------------------------------|---------------------------------|
B|---------------------------------|---------------------------------|
G|-------------3-----------5-------|-----3-----------6---5---3-------|
D|-6---3---3-------3---3-------3---|-4-------4---4---------------4---|
A|---------------------------------|---------------------------------|
E|---------------------------------|---------------------------------|
|
|Guitar 2
|
E|---------------------------------|---------------------------------|
B|---------------------------------|---------------------------------|
G|---------------------------------|---------------------------------|
D|---------------------------------|---------------------------------|
A|-------------1-----------3-------|-----1-----------4---3---1-------|
E|-4---1---1-------1---1-------1---|-2-------2---2---------------2---|


GUITAR SOLO
|
|Guitar 1
|
E|---------------------------------|---------------------------------|
B|---------------------------------|---------------------------------|
G|---------------------------------|---------------------------------|
D|-----------------4---------------|-----------------4-----------4---|
A|-(4)-6---6---6-------6---6---6---|-4---6---6---6-------6-----------|
E|---------------------------------|---------------------------------|

|
|Guitar 1
|
E|---------------------------------|---------------------------------|
B|---------------------------------|---------------------------------|
G|---------------------------------|---------------------------------|
D|-----------------4-----------4---|-----4-------4---6---4-----------|
A|-(4)-6---6---6-------6---6-------|-------------------------6---4---|
E|---------------------------------|---------------------------------|

|
|Guitar 1
|
E|---------------------------------|---------------------------------|
B|---------------------------------|---------------------------------|
G|---------------------------------|---------------------------------|
D|-----------------4---------------|-----------------4---------------|
A|-(4)-6---6---6-------6---6---6---|-4---6---6---6-------6-------4---|
E|---------------------------------|---------------------------------|

|
|Guitar 1
|
E|---------------------------------|---------------------------------|
B|---------------------------------|---------------------------------|
G|---------------------------------|---------------------------------|
D|-----------------4-----------4---|-----4-------4---6-p-4-------3---|
A|-(4)-6---6---6-------6---6-------|-------------------------6-------|
E|---------------------------------|---------------------------------|
|
|Guitar 2
|
|---------------------------------|
|---------------------------------|
|---------------------------------|
|---------------------------------|
|-----------------------------4---|
|---------------------------------|

|
|Guitar 1
|
E|---------------------------------|---------------------------------|
B|---------------------------------|---------------------------------|
G|-----------------3---------------|-----------------3---------------|
D|-3---4---4---4-------4---4---4---|-3---4---4---4-------4-------3---|
A|---------------------------------|---------------------------------|
E|---------------------------------|---------------------------------|
|
|Guitar 2
|
E|---------------------------------|---------------------------------|
B|---------------------------------|---------------------------------|
G|---------------------------------|---------------------------------|
D|-----------------4---------------|-----------------4---------------|
A|-(4)-6---6---6-------6---6---6---|-4---6---6---6-------6-------4---|
E|---------------------------------|---------------------------------|

|
|Guitar 1
|
E|---------------------------------|---------------------------------|
B|---------------------------------|---------------------------------|
G|-----------------3-----------3---|-----3-------3---4-p-3-----------|
D|-(3)-4---4---4-------4---4-------|-------------------------4---3---|
A|---------------------------------|---------------------------------|
E|---------------------------------|---------------------------------|
|
|Guitar 2
|
E|---------------------------------|---------------------------------|
B|---------------------------------|---------------------------------|
G|---------------------------------|---------------------------------|
D|-----------------4-----------4---|-----4-------4---6---4-----------|
A|-(4)-6---6---6-------6---6-------|-------------------------6---4---|
E|---------------------------------|---------------------------------|

|
|Guitar 1
|
E|---------------------------------|---------------------------------|
B|---------------------------------|---------------------------------|
G|-----------------3---------------|-----------------3---------------|
D|-(3)-4---4---4-------4---4---4---|-3---4---4---4-------4-------3---|
A|---------------------------------|---------------------------------|
E|---------------------------------|---------------------------------|
|
|Guitar 2
|
E|---------------------------------|---------------------------------|
B|---------------------------------|---------------------------------|
G|---------------------------------|---------------------------------|
D|-----------------4---------------|-----------------4---------------|
A|-(4)-6---6---6-------6---6---6---|-4---6---6---6-------6-------4---|
E|---------------------------------|---------------------------------|

|
|Guitar 1
|
E|---------------------------------|---------------------------------|
B|---------------------------------|---------------------------------|
G|-----------------3-----------3---|-----3-------3---4-p-3-----------|
D|-(3)-4---4---4-------4---4-------|-------------------------4-------|
A|---------------------------------|-----------------------------6---|
E|---------------------------------|---------------------------------|
|
|Guitar 2
|
E|---------------------------------|---------------------------------|
B|---------------------------------|---------------------------------|
G|---------------------------------|---------------------------------|
D|-----------------4-----------4---|-----4-------4---6---4-----------|
A|-(4)-6---6---6-------6---6-------|-------------------------6---4---|
E|---------------------------------|---------------------------------|

|
|Guitar 1
|
E|---------------------------------|---------------------------------|
B|---------------------------------|---------------------------------|
G|---------------------------------|---------------------------------|
D|-----3---3---3-------3---3---3---|-----3---3---3---4---3-----------|
A|-(6)-------------6---------------|-6---------------------------6---|
E|---------------------------------|---------------------------------|

|
|Guitar 1
|
E|---------------------------------|---------------------------------|
B|---------------------------------|---------------------------------|
G|---------------------------------|---------------------------------|
D|-----3---3---3-------3---3---3---|-4---4---4---4---6---4---3-------|
A|-(6)-------------6---------------|-----------------------------6---|
E|---------------------------------|---------------------------------|

|
|Guitar 1
|
E|---------------------------------|---------------------------------|
B|---------------------------------|---------------------------------|
G|---------------------------------|---------------------------------|
D|-----3---3---3-------3---3---3---|-----3---3---3---4---3-----------|
A|-(6)-------------6---------------|-6---------------------------6---|
E|---------------------------------|---------------------------------|

|
|Guitar 1
|
E|---------------------------------|---------------------------------|
B|---------------------------------|---------------------------------|
G|---------------------------------|---------------------------------|
D|-----3---3---3-------3---3---3---|-4---4---4---4---6---4---3-------|
A|-(6)-------------6---------------|-----------------------------6---|
E|---------------------------------|---------------------------------|


INTERLUDE
|
|Guitar 1
|
E|---------------------------------|---------------------------------|
B|---------------------------------|---------------------------------|
G|-------------3-----------5-------|-----3-----------6---5---3-------|
D|-6---4---4-------4---4-------3---|-3-------3---3---------------3---|
A|---------------------------------|---------------------------------|
E|---------------------------------|---------------------------------|
|
|Guitar 2
|
E|---------------------------------|---------------------------------|
B|---------------------------------|---------------------------------|
G|---------------------------------|---------------------------------|
D|---------------------------------|---------------------------------|
A|-------------1-----------3-------|-----1-----------4---3---1-------|
E|-4---2---2-------2---2-------1---|-1-------1---1---------------1---|

|
|Guitar 1
|
E|---------------------------------|---------------------------------|
B|---------------------------------|---------------------------------|
G|-------------3-----------5-------|-----3-----------6---5---3-------|
D|-6---3---3-------3---3-------3---|-3-------3---3-------------------|
A|---------------------------------|---------------------------------|
E|---------------------------------|---------------------------------|
|
|Guitar 2
|
E|---------------------------------|---------------------------------|
B|---------------------------------|---------------------------------|
G|---------------------------------|---------------------------------|
D|---------------------------------|---------------------------------|
A|-------------1-----------3-------|-----1-----------4---3---1-------|
E|-4---1---1-------1---1-------1---|-1-------1---1-------------------|

|
|Guitar 1
|
E|---------------------------------|---------------------------------|
B|---------------------------------|---------------------------------|
G|-------------3-----------5-------|-----3-----------6---5---3-------|
D|-6---4---4-------4---4-------3---|-3-------3---3---------------3---|
A|---------------------------------|---------------------------------|
E|---------------------------------|---------------------------------|
|
|Guitar 2
|
E|---------------------------------|---------------------------------|
B|---------------------------------|---------------------------------|
G|---------------------------------|---------------------------------|
D|---------------------------------|---------------------------------|
A|-------------1-----------3-------|-----1-----------4---3---1-------|
E|-4---2---2-------2---2-------1---|-1-------1---1---------------1---|

|
|Guitar 1
|
E|---------------------------------|---------------------------------|
B|---------------------------------|---------------------------------|
G|-------------3-----------5-------|-----3-----------6---5---3-------|
D|-6---3---3-------3---3-------3---|-3-------3---3-------------------|
A|---------------------------------|---------------------------------|
E|---------------------------------|---------------------------------|
|
|Guitar 2
|
E|---------------------------------|---------------------------------|
B|---------------------------------|---------------------------------|
G|---------------------------------|---------------------------------|
D|---------------------------------|---------------------------------|
A|-------------1-----------3-------|-----1-----------4---3---1-------|
E|-4---1---1-------1---1-------1---|-1-------1---1-------------------|


2nd VERSE
|
|Guitar 1
|
E|---------------------------------|---------------------------------|
B|---------------------------------|---------------------------------|
G|-3---4---4---4---3-------3---4---|-4---4---3-------3---4---4---4---|
D|---------------------4-----------|-------------4-------------------|
A|---------------------------------|---------------------------------|
E|---------------------------------|---------------------------------|
|
|Guitar 2
|
E|---------------------------------|---------------------------------|
B|---------------------------------|---------------------------------|
G|---------------------------------|---------------------------------|
D|---------------------------------|---------------------------------|
A|-1---2---2---2---1-------1---2---|-2---2---1-------1---2---2---2---|
E|---------------------2-----------|-------------2-------------------|

|
|Guitar 1
|
E|---------------------------------|---------------------------------|
B|-------------------------11------|-(11)----------------------------|
G|-4---3-------------------11------|-(11)----------------------------|
D|---------4---4-----------11------|-(11)----------------------------|
A|-------------------------9-------|-(9)-----------------------------|
E|---------------------------------|---------------------------------|
|
|Guitar 2
|
E|---------------------------------|---------------------------------|
B|-------------------------11------|-(11)----------------------------|
G|-------------------------11------|-(11)----------------------------|
D|-------------------------11------|-(11)----------------------------|
A|-2---1-------------------9-------|-(9)-----------------------------|
E|---------2---2-------------------|---------------------------------|

|
|Guitar 1
|
E|---------------------------------|---------------------------------|
B|---------------------------------|---------------------------------|
G|-3---4---4---4---3-------3---4---|-4---4---3-------3---4---4---4---|
D|---------------------4-----------|-------------4-------------------|
A|---------------------------------|---------------------------------|
E|---------------------------------|---------------------------------|
|
|Guitar 2
|
E|---------------------------------|---------------------------------|
B|---------------------------------|---------------------------------|
G|---------------------------------|---------------------------------|
D|---------------------------------|---------------------------------|
A|-1---2---2---2---1-------1---2---|-2---2---1-------1---2---2---2---|
E|---------------------2-----------|-------------2-------------------|

| |
|Guitar 1 |Both Guitars
| |
E|---------------------------------|---------------------------------|
B|-------------------------11------|-(11)----------------11--11--11--|
G|-4---3-------------------11------|-(11)----------------11--11--11--|
D|---------4---4-----------11------|-(11)----------------11--11--11--|
A|-------------------------9-------|-(9)-----------------9---9---9---|
E|---------------------------------|---------------------------------|
|
|Guitar 2
|
E|---------------------------------|
B|-------------------------11------|
G|-------------------------11------|
D|-------------------------11------|
A|-2---1-------------------9-------|
E|---------2---2-------------------|

|
|Both Guitars
|
E|---------------------------------|---------------------------------|
B|-11\-9---------------------------|-(9)-----------------------------|
G|-11\-9---------------------------|-(9)-----------------------------|
D|-11\-9---------------------------|-(9)-----------------------------|
A|-9-\-7---------------------------|-(7)-----------------------------|
E|---------------------------------|---------------------------------|

|
|Both Guitars
|
E|-------------4-----------6-------|---------------------------------|
B|-5-----------5-----------7-------|---------------------------------|
G|-4-------------------------------|-----4---3-------4---3-----------|
D|---------------------------------|-------------4-----------4-------|
A|---------------------------------|---------------------------------|
E|---------------------------------|---------------------------------|

|
|Both Guitars
|
E|---------------------------------|---------------------------------|
B|-9-/-11--------------------------|-(11)----------------------------|
G|-9-/-11--------------------------|-(11)----------------------------|
D|-9-/-11--------------------------|-(11)----------------------------|
A|-7-/-9---------------------------|-(9)-----------------------------|
E|---------------------------------|---------------------------------|

|
|Both Guitars
|
E|---------------------------------|---------------------------------|
B|-(11)----------------------------|-(11)----------------------------|
G|-(11)----------------------------|-(11)----------------------------|
D|-(11)----------------------------|-(11)----------------------------|
A|-(9)-----------------------------|-(9)-----------------------------|
E|---------------------------------|---------------------------------|

|
|Guitar 1
|
E|---------------------------------|---------------------------------|
B|---------------------------------|---------------------------------|
G|-3---4---4---4---3-------3---4---|-4---4---3-------3---4---4---4---|
D|---------------------4-----------|-------------4-------------------|
A|---------------------------------|---------------------------------|
E|---------------------------------|---------------------------------|
|
|Guitar 2
|
E|---------------------------------|---------------------------------|
B|---------------------------------|---------------------------------|
G|---------------------------------|---------------------------------|
D|---------------------------------|---------------------------------|
A|-1---2---2---2---1-------1---2---|-2---2---1-------1---2---2---2---|
E|---------------------2-----------|-------------2-------------------|

|
|Guitar 1
|
E|---------------------------------|---------------------------------|
B|-------------------------11------|-(11)----------------------------|
G|-4---3-------------------11------|-(11)----------------------------|
D|---------4---4-----------11------|-(11)----------------------------|
A|-------------------------9-------|-(9)-----------------------------|
E|---------------------------------|---------------------------------|
|
|Guitar 2
|
E|---------------------------------|---------------------------------|
B|-------------------------11------|-(11)----------------------------|
G|-------------------------11------|-(11)----------------------------|
D|-------------------------11------|-(11)----------------------------|
A|-2---1-------------------9-------|-(9)-----------------------------|
E|---------2---2-------------------|---------------------------------|

|
|Guitar 1
|
E|---------------------------------|---------------------------------|
B|---------------------------------|---------------------------------|
G|-3---4---4---4---3-------3---4---|-4---4---3-------3---4---4---4---|
D|---------------------4-----------|-------------4-------------------|
A|---------------------------------|---------------------------------|
E|---------------------------------|---------------------------------|
|
|Guitar 2
|
E|---------------------------------|---------------------------------|
B|---------------------------------|---------------------------------|
G|---------------------------------|---------------------------------|
D|---------------------------------|---------------------------------|
A|-1---2---2---2---1-------1---2---|-2---2---1-------1---2---2---2---|
E|---------------------2-----------|-------------2-------------------|

| |
|Guitar 1 |Both Guitars
| |
E|---------------------------------|---------------------------------|
B|-------------------------11------|-(11)----------------11--11--11--|
G|-4---3-------------------11------|-(11)----------------11--11--11--|
D|---------4---4-----------11------|-(11)----------------11--11--11--|
A|-------------------------9-------|-(9)-----------------9---9---9---|
E|---------------------------------|---------------------------------|
|
|Guitar 2
|
E|---------------------------------|
B|-------------------------11------|
G|-------------------------11------|
D|-------------------------11------|
A|-2---1-------------------9-------|
E|---------2---2-------------------|

|
|Both Guitars
|
E|---------------------------------|---------------------------------|
B|-11\-9---------------------------|-(9)-----------------------------|
G|-11\-9---------------------------|-(9)-----------------------------|
D|-11\-9---------------------------|-(9)-----------------------------|
A|-9-\-7---------------------------|-(7)-----------------------------|
E|---------------------------------|---------------------------------|

|
|Both Guitars
|
E|-------------4-----------6-------|-7-----------6-------------------|
B|-5-----------5-----------7-------|-9-----------7-----------5-------|
G|-4-------------------------------|-------------------------4-------|
D|---------------------------------|---------------------------------|
A|---------------------------------|---------------------------------|
E|---------------------------------|---------------------------------|

|
|Both Guitars
|
E|---------------------------------|---------------------------------|
B|-9-/-11--------------------------|-(11)----------------------------|
G|-9-/-11--------------------------|-(11)----------------------------|
D|-9-/-11--------------------------|-(11)----------------------------|
A|-7-/-9---------------------------|-(9)-----------------------------|
E|---------------------------------|---------------------------------|

|
|Both Guitars
|
E|---------------------------------|---------------------------------|
B|-(11)----------------------------|-(11)----------------------------|
G|-(11)----------------------------|-(11)----------------------------|
D|-(11)----------------------------|-(11)----------------------------|
A|-(9)-----------------------------|-(9)-----------------------------|
E|---------------------------------|---------------------------------|


CHORUS
|
|Both Guitars
|
E|---------------------------------|---------------------------------|
B|---------------------------------|---------------------------------|
G|-10----------12----------10------|-----12----------14--------------|
D|-10----------12----------10------|-----12----------14--------------|
A|-8-----------10----------8-------|-----10----------12--------------|
E|---------------------------------|---------------------------------|

|
|Both Guitars
|
E|---------------------------------|---------------------------------|
B|---------------------------------|---------------------------------|
G|-8-----------10----------8-------|-----10----------12--------------|
D|-8-----------10----------8-------|-----10----------12--------------|
A|-6-----------8-----------6-------|-----8-----------10--------------|
E|---------------------------------|---------------------------------|

|
|Both Guitars
|
E|---------------------------------|---------------------------------|
B|---------------------------------|---------------------------------|
G|-5-/-7-------7-----------7-------|-----7-----------7-\-5-----------|
D|-5-/-7-------7-----------7-------|-----7-----------7-\-5-----------|
A|-3-/-5---5---5---5---5---5---5---|-5---5---5---5---5-\-3-----------|
E|---------------------------------|---------------------------------|

|
|Both Guitars
|
E|---------------------------------|---------------------------------|
B|---------------------------------|---------------------------------|
G|-5-/-7-------7-----------7-------|-----7-----------7-\-5-----------|
D|-5-/-7-------7-----------7-------|-----7-----------7-\-5-----------|
A|-3-/-5---5---5---5---5---5---5---|-5---5---5---5---5-\-3-----------|
E|---------------------------------|---------------------------------|

|
|Both Guitars
|
E|---------------------------------|---------------------------------|
B|---------------------------------|---------------------------------|
G|-10----------12----------10------|-----12----------14--------------|
D|-10----------12----------10------|-----12----------14--------------|
A|-8-----------10----------8-------|-----10----------12--------------|
E|---------------------------------|---------------------------------|

|
|Both Guitars
|
E|---------------------------------|---------------------------------|
B|---------------------------------|---------------------------------|
G|-8-----------10----------8-------|-----10----------12--------------|
D|-8-----------10----------8-------|-----10----------12--------------|
A|-6-----------8-----------6-------|-----8-----------10--------------|
E|---------------------------------|---------------------------------|

|
|Both Guitars
|
E|---------------------------------|---------------------------------|
B|---------------------------------|---------------------------------|
G|-5-/-7-------7-----------7-------|-----7-----------7-\-5-----------|
D|-5-/-7-------7-----------7-------|-----7-----------7-\-5-----------|
A|-3-/-5---5---5---5---5---5---5---|-5---5---5---5---5-\-3-----------|
E|---------------------------------|---------------------------------|

|
|Both Guitars
|
E|---------------------------------|---------------------------------|
B|---------------------------------|---------------------------------|
G|-5-/-7-------7-----------7-------|-----7-----------7-\-5-----------|
D|-5-/-7-------7-----------7-------|-----7-----------7-\-5-----------|
A|-3-/-5---5---5---5---5---5---5---|-5---5---5---5---5-\-3-----------|
E|---------------------------------|---------------------------------|

|
|Both Guitars
|
E|---------------------------------|---------------------------------|
B|---------------------------------|---------------------------------|
G|-12----------14----------12------|-----14--------------------------|
D|-12----------14----------12------|-----14----------9---------------|
A|-10----------12----------10------|-----12----------9---------------|
E|---------------------------------|-----------------7---------------|

|
|Both Guitars
|
E|---------------------------------|---------------------------------|
B|---------------------------------|---------------------------------|
G|-10----------12----------10------|-----12----------14--------------|
D|-10----------12----------10------|-----12----------14--------------|
A|-8-----------10----------8-------|-----10----------12--------------|
E|---------------------------------|---------------------------------|

|
|Both Guitars
|
E|---------------------------------|---------------------------------|
B|---------------------------------|---------------------------------|
G|-7-/-9-------9-----------9-------|-----9-----------9-\-7-----------|
D|-7-/-9-------9-----------9-------|-----9-----------9-\-7-----------|
A|-5-/-7---7---7---7---7---7---7---|-7---7---7---7---7-\-
Copyright Augusto Raffaelli (rafaelli@act.com.br)
Tab from Maiden World - (http://www.maiden-world.com/)
Click here for printable version



You are here: Home > Tabs > Iron Maiden - Tail Gunner Guitar Tab


All content, images and other resources are the property of their respective copyright holders
Specific website content & style is copyright © 2003-2018 maiden-world.com, All Rights Reserved
Admin E-mail: admin AT maiden-world DOT com , Site Design by Jon Simpson