www.maiden-world.com
Site
Home
Forum
Wiki
DC Hub
Donate
Links
Contact
About

Content
Albums
Articles
Bootleg DB
Concerts/Gigs
Collectables
Merchandise
Lyrics
Tabs
Tribute Albums
Videos
Ed Hunter
Concert Tickets

Downloads
Mobile
Wallpaper
Bootleg Manager
Other Downloads

Maiden World - Iron Maiden news, discussion, information and articles
Iron Maiden - Wasting Love Guitar Tab

You are here: Home > Iron Maiden Tabs > Iron Maiden - Wasting Love Guitar Tab

Information

About this tab
Song: Iron Maiden - Wasting Love
Author: Jorge Baroudi (oddiejbp@hotmail.com)
Type: Guitar
Album: Fear Of The Dark
Track no: 6

Copyright

This tab is the author's own work and represents their interpretation of the song. You may only use this file for private study, scholarship, or research.


Tab

Click here for printable version
[Drum intro]

            [Guitar intro]                                [Fading out]
[----------][----------------------7---------------------][------]
[----------][-----7--8---10^--7~----10--8--7--8--7-------][------]
[----------][--9~----------------------------------9--7--][--9~--]GTR 1
[----------][---------10---------------------------------][------]
[----------][--------------------------------------------][------]
[----------][--------------------------------------------][------]
                                                          [Fading out]
[----------][---------------------10---------------------][------]
[----------][----10-12---13^-10~----13-12-10-12-10-------][------]
[----------][-12~------9--------------------------12--9--][-12~--]GTR 2
[----------][--------------------------------------------][------]
[----------][--------------------------------------------][------]
[----------][--------------------------------------------][------]

[First part]
[---------------------------------------------]
[----------------3---------------------3------]
[------0-------0---0---------0-------0--------]
[----4---4----4-4-4-4------4---4----4-4-------]
[---2-2-2-2--3------------2-2-2-2--3----------]
[--0---------------------0--------------------]
                               [Repeat 4 times]

[Second part]
[---------------------------------------------]
[------0---------3-----------0---------3------]
[----0---0-----4---4-------0---0-----4---4----]
[---2-2-2-2---2-2-2-2-----2-2-2-2---2-2-2-2---]
[--0---------0-----------0---------0----------]
[---------------------------------------------]

Now, play again the [First part] one time.

[Chorus]
[---------------------------------------------------------------]
[---------------------------------------------------------------]
[--9-5-7---------9-5-7-------------9-5-7-----77--9-5-7----5-----]
[--9-5-7--55-33--9-5-7--5555-3333--9-5-7--55-77--9-5-7----5-----]
[--7-3-5--55-33--7-3-5--5555-3333--7-3-5--55-55--7-3-5----3-----]
[---------33-11---------3333-1111---------33--------------------]
          ** **                           ** ** (* = short sound)

[After Chorus]
[----------------3---] [-------------]
[----------------3---] [-------------]
[----0-----0-----0---] [----0-----0--]
[---4-----2------2---] [---4-----2---]
[--5-----3-------2---] [--5-----3----]
[-------------0--0---] [-------------]
[Repeat 3 times] [The fourth time play just this ]


Play the [First part] 2 times

Play the [Second part] 1 time

Play the [First part] 1 time

Play the [Second part] 1 time

Play the [First part] 1 time

Play the [Chorus] 1 time

Play the [After Chorus]

Play the [Guitar Intro]

[Before Guitar solo]
[------------------------------------------]
[------------------------------------------]
[------------------------7-----------------]
[--2---4---5-4-----4-5-4-------------------]
[----2---2-----2-3-------------------------]
[------------------------------------------]
   * * * * * * * * * * * *  [Repeat 4 times]

if someone could help me with the guitar solo
it will be nice.
I'm not a good Guitar Solo player. :(

But i'm practicing :)
Anyway...

[Guitar Solo]

Play [Chorus] 2 times
Play [After Chorus] 1 time and finish.
Copyright Jorge Baroudi (oddiejbp@hotmail.com)
Tab from Maiden World - (http://www.maiden-world.com/)
Click here for printable version



You are here: Home > Tabs > Iron Maiden - Wasting Love Guitar Tab


All content, images and other resources are the property of their respective copyright holders
Specific website content & style is copyright © 2003-2018 maiden-world.com, All Rights Reserved
Admin E-mail: admin AT maiden-world DOT com , Site Design by Jon Simpson