www.maiden-world.com
Site
Home
Forum
Wiki
DC Hub
Donate
Links
Contact
About

Content
Albums
Articles
Bootleg DB
Concerts/Gigs
Collectables
Merchandise
Lyrics
Tabs
Tribute Albums
Videos
Ed Hunter
Concert Tickets

Downloads
Mobile
Wallpaper
Bootleg Manager
Other Downloads

Maiden World - Iron Maiden news, discussion, information and articles
Iron Maiden - Lord Of The Flies Guitar Tab

You are here: Home > Iron Maiden Tabs > Iron Maiden - Lord Of The Flies Guitar Tab

Information

About this tab
Song: Iron Maiden - Lord Of The Flies
Author: A. Weston (aweston@argonet.co.uk)
Type: Guitar
Album: The X Factor
Track no: 2

Copyright

This tab is the author's own work and represents their interpretation of the song. You may only use this file for private study, scholarship, or research.


Tab

Click here for printable version
  Repeat 8x : (Intro)

-]-------------------------------------------------------------------------
-]-------------------------------------------------------------------------
-]--4--0-0-7---0-0-9---0-0-7-0-0-4-------4---------------------------------
-]--4--0-0-7---0-0-9---0-0-7-0-0-4-7---7-4---------------------------------
-]---------------------------------7---7-----------------------------------
-]-------------------------------------------------------------------------

   Gtr.2  (1st four times)                       next 4 times
-]---------------------------------------------|---------------
-]- -------------------------------------------|---------------
-]---------------------------------------------|-4-------------
-]--2------------------------------------------|-2-------------
-]--2------------------------------------------|---------------
-]--0------------------------------------------|---------------



  Play twice


-]--------------------|-------------------------------------------
-]- ------------------|-------------------------------------------
-]---10--12--9--11----|--10--12--9--------------------------------
-]---10--12--9--11----|--10--12--9--------------------------------
-]---9---10--7---9----|--9---10--7--------------------------------
-]--------------------|-------------------------------------------





-]--------------------|-------------------------------------------
-]- ------------------|-------------------------------------------
-]---10--12--9--11----|--10--12--9--------------------------------
-]---10--12--9--11----|--10--12--9--------------------------------
-]---9---10--7---9----|--9---10--7--------------------------------
-]--------------------|-------------------------------------------




  I dont care for this  ...





-]--------------------|-------------------------------------------
-]- ------------------|-------------------------------------------
-]---10--12--9--11----|--10--12--9--------------------------------
-]---10--12--9--11----|--10--12--9--------------------------------
-]---9---10--7---9----|--9---10--7--------------------------------
-]--------------------|-------------------------------------------




   I just want to live ...




-]--------------------|-------------------------------------------
-]- ------------------|-------------------------------------------
-]---10--12--9--11----|--10--12--9--------------------------------
-]---10--12--9--11----|--10--12--9--------------------------------
-]---9---10--7---9----|--9---10--7--------------------------------
-]--------------------|-------------------------------------------



  Fate has brought to this ...




-]--------------------|-------------------------------------------
-]- ------------------|-------------------------------------------
-]---10--12--9--11----|--10--12--9--------------------------------
-]---10--12--9--11----|--10--12--9--------------------------------
-]---9---10--7---9----|--9---10--7--------------------------------
-]--------------------|-------------------------------------------




  What was meant to be ....


                                                                _______
                                                                     1|
_]--------------------------------------------------|-----------------|
-]--------------------------------------------------|-----------------|
-]-*--7------------------9-------------9-9-9--7-----|-11-11-11-9-----*|
-]----7------------------9-------------9-9-9--7-----|-11-11-11-9------|
-]-*--5------------------7-------------7x7-7--5-----|--9--9x-9-7-----*|
-]--------------------------------------------------|-----------------|



  I've found...   this living in danger

          ________
                2|
-]-----------------|----------------
-]-----------------|----------------
-]-----------------|----------------
-]--4---4---4------|----------------
-]--4---4---4------|----------------
-]--2-x-2-x-2------|----------------





  Chorus :

-]---------------------------------------------------------------------
-]---------------------------------------------------------------------
-]---11---------------7-----------2-----------4---7-7-7-7---9-----------
-]---11---------------7-----------2-----------4---7-7-7-7---9-----------
-]---9----------------5-----------0-----------2---5-5-5-5---7-----------
-]---------------------------------------------------------------------



 Saints and ...                    we are ..  flies



  Repeat 8x : (Interlude)
-]-------------------------------------------------------------------------
-]-------------------------------------------------------------------------
-]-------------------------------------------------------------------------
-]--4--0-0-7---0-0-9---0-0-7-0-0-4-------4---------------------------------
-]--4--0-0-7---0-0-9---0-0-7-0-0-4-7---7-4---------------------------------
-]---------------------------------7---7-----------------------------------

   Gtr.2  (1st four times)                       next 4 times
-]---------------------------------------------|---------------
-]- -------------------------------------------|---------------
-]---------------------------------------------|-6-------------
-]--4------------------------------------------|-4-------------
-]--4------------------------------------------|---------------
-]--2------------------------------------------|---------------


(solo)


-]--------------------------------------------------------------------
-]----------------------------17b--17b---17b19r17p15----------------
-]-16b18--16b18--16b18r16p14----------------------------------------
-]-------------------------------------------------------------------
-]-------------------------------------------------------------------
-]-------------------------------------------------------------------

-]--------------------------------------------------------------
-]-------------------------------------------------------------
-]---------------2-----2-----------------4---4-----------------
-]-4------4------2-----2------4----4-----4---4-----------------
-]-4------4------0-----0------4----4-----2---2-------------------
-]-2------2-------------------2----2----------------------------


-]--17b19-17-16-14-12-14----------------------------------------
-]---------------------------------------------------------------
-]--------------------------16b18-16b18--16b18r16p14----14-------
-]---------------------------------------------------16----------
-]--------------------------------------------------------------
-]--------------------------------------------------------------


-]--------------------------------------------------------------
-]-------------------------------------------------------------
-]-------------------------------------------------------------
-]--------------------------4-----4----------------------------
-]--------------------------4-----4-----------------------------
-]--------------------------2-----2----------------------------

-]--------------------------------------------------------------
-]-------------------------------------------------------------
-]--16b18-18-18-18-18-18-18-18-18-18r16-------------------------
-]-------------------------------------------------------------
-]--------------------------------------------------------------
-]--------------------------------------------------------------

-]--------------------------------------------------------------
-]-------------------------------------------------------------
-]--2-----2----------------------------------------------------
-]--2-----2----------------------------------------------------
-]--0-----0-----------------------------------------------------
-]-------------------------------------------------------------

-]--s19b21-19b21-19b21-19-17-16-17-16----------------------------
-]------------------------------------17-19----------------------
-]-------------------------------------------------------------
-]-------------------------------------------------------------
-]--------------------------------------------------------------
-]--------------------------------------------------------------


-]--------------------------------------------------------------
-]-------------------------------------------------------------
-]---------------------4----4----------------------------------
-]--4-----4------------4----4----------------------------------
-]--4-----4------------2----2-----------------------------------
-]--2-----2-----------------------------------------------------

   Play twice then twice under vocals
-]------------------------|---------------------|-------------------
-]--2--3--3b5---3--2------|--2--3--3b5---3---2--|---2--3--3b5--3--2-
-]*-----------------------|---------------------|-------------------
-]------------------------|---------------------|-------------------
-]*-----------------------|---------------------|-------------------
-]------------------------|---------------------|-------------------
                          |                     |
-]------------------------|---------------------|--------------------
-]------------------------|---------------------|--------------------
-]------------------------|---------------------|--------------------
-]------------------------|-2----repeat rhythm--|--------------------
-]--444--444--444--444--4-|-0-------------------|-2---repeat rhythm--
-]--222--222--222--222--2-|---------------------|-0------------------

-]---------------------------|-----------------------------------
-]--5--7--7b9--7--5----------|-----------------------------------
-]--------------------------*|----------------------------------
-]---------------------------|----------------------------------
-]--------------------------*|-----------------------------------
-]---------------------------|-----------------------------------
                             |
-]---------------------------|-----------------------------------
-]---------------------------|----------------------------------
-]---------------------------|----------------------------------
-]-4----repeat rhythm--------|----------------------------------
-]-2-------------------------|-----------------------------------
-]---------------------------|-----------------------------------






  Chorus :

-]---------------------------------------------------------------------
-]---------------------------------------------------------------------
-]---11---------------7-----------2-----------4---7-7-7-7---9-----------
-]---11---------------7-----------2-----------4---7-7-7-7---9-----------
-]---9----------------5-----------0-----------2---5-5-5-5---7-----------
-]---------------------------------------------------------------------



 Saints and ...                    we are ..  flies


  Repeat 4x : (Outro)
-]-------------------------------------------------------------------------
-]-------------------------------------------------------------------------
-]-------------------------------------------------------------------------
-]--4--0-0-7---0-0-9---0-0-7-0-0-4-------4---------------------------------
-]--4--0-0-7---0-0-9---0-0-7-0-0-4-7---7-4---------------------------------
-]---------------------------------7---7-----------------------------------

   Gtr.2  ( four times)
-]---------------------------------------------|
-]- -------------------------------------------|
-]---------------------------------------------|
-]--4------------------------------------------|
-]--4------------------------------------------|
-]--2------------------------------------------|

                                    END

Copyright A. Weston (aweston@argonet.co.uk)
Tab from Maiden World - (http://www.maiden-world.com/)
Click here for printable version



You are here: Home > Tabs > Iron Maiden - Lord Of The Flies Guitar Tab


All content, images and other resources are the property of their respective copyright holders
Specific website content & style is copyright © 2003-2018 maiden-world.com, All Rights Reserved
Admin E-mail: admin AT maiden-world DOT com , Site Design by Jon Simpson