www.maiden-world.com
Site
Home
Forum
Wiki
DC Hub
Donate
Links
Contact
About

Content
Albums
Articles
Bootleg DB
Concerts/Gigs
Collectables
Merchandise
Lyrics
Tabs
Tribute Albums
Videos
Ed Hunter
Concert Tickets

Downloads
Mobile
Wallpaper
Bootleg Manager
Other Downloads

Maiden World - Iron Maiden news, discussion, information and articles
Iron Maiden - The Clansman Guitar Tab

You are here: Home > Iron Maiden Tabs > Iron Maiden - The Clansman Guitar Tab

Information

About this tab
Song: Iron Maiden - The Clansman
Author: Torsten Engström (crazy_trane@hotmail.com)
Type: Guitar
Album: Virtual XI
Track no: 4

Copyright

This tab is the author's own work and represents their interpretation of the song. You may only use this file for private study, scholarship, or research.


Tab

Click here for printable version
Intro:
Guitar 1 Intro:
          Riff 1 
          e-|-----------|-----------|-----------|-----------------|
          B-|-----------|-----------|-----------|-----5p8h5-------|
          G-|-7b-7b-7-5-|-7-7-5-----|-7b-7b-7-5-|-7-7-------7h5-7-| x4
          D-|-----------|-------7-5-|-----------|-----------------|
          A-|-----------|-----------|-----------|-----------------|
          E-|-----------|-----------|-----------|-----------------|
                                                                
                                                                

          Riff 2 
          e-|-------|--------7-8p7------|-------|--------7-8p7------|-------|--------7-8p7------|-10~---|---8--7---|
          B-|-10~---|-----10-------10p8-|-10~---|-----10-------10p8-|-10~---|-----10-------10p8-|-------|--------8-|
          G-|-------|---9---------------|-------|---9---------------|-------|---9---------------|-------|----------|
          D-|-------|-------------------|-------|-------------------|-------|-------------------|-------|----------|
          A-|-------|-------------------|-------|-------------------|-------|-------------------|-------|----------|
          E-|-------|-------------------|-------|-------------------|-------|-------------------|-------|----------|

          e-|-------|--------7-8p7------|-------|--------7-8p7------|-------|---------|
          B-|-10~---|-----10-------10p8-|-10~---|-----10-------10p8-|-10~---|-(10~)---|
          G-|-------|---9---------------|-------|---9---------------|-------|---------|
          D-|-------|-------------------|-------|-------------------|-------|---------|
          A-|-------|-------------------|-------|-------------------|-------|---------|
          E-|-------|-------------------|-------|-------------------|-------|---------|

          Riff 3 
          e-|-10~---8p7-|-------|-10~---8p7-|-------|-10~---8p7-|---------7---|-(7)---|---------|
          B-|-----------|-10~---|-----------|-10~---|-----------|-10~---8---8-|-10~---|-8h10~---|
          G-|-----------|-------|-----------|-------|-----------|-------------|-------|---------|
          D-|-----------|-------|-----------|-------|-----------|-------------|-------|---------|
          A-|-----------|-------|-----------|-------|-----------|-------------|-------|---------|
          E-|-----------|-------|-----------|-------|-----------|-------------|-------|---------|

     
          PRiff 1
          e-|-----------------|-----------------|-----------------|-----------------------|
          B-|-----------------|-----------------|-----------------|-----------------------|
          G-|---9---9---9---9-|---7---7---7---7-|-----------------|-----------------------| x4
          D-|-7---7---7---7---|-5---5---5---5---|---7---7---7---7-|---10---10----12----12-|
          A-|-----------------|-----------------|-5---5---5---5---|-8----8----10----10----|
          E-|-----------------|-----------------|-----------------|-----------------------|

          Riff 2
          e-|-----------------|-----------------|-------------------------|--------------------------|
          B-|-----------------|-----------------|-------------------------|--------------------------|
          G-|---9---9---9---9-|---9---9---9---9-|-------------------------|--------------------------|
          D-|-7---7---7---7---|-7---7---7---7---|----12----12----12----12-|-----12----12----12----12-|
          A-|-----------------|-----------------|-10----10----10----10----|-10-----10----10----10----|
          E-|-----------------|-----------------|-------------------------|--------------------------|

          e-|-----------------|-----------------|-----------------|-----------------|
          B-|-----------------|-----------------|-----------------|-----------------|
          G-|---9---9---9---9-|---9---9---9---9-|-----------------|-----------------|
          D-|-7---7---7---7---|-7---7---7---7---|---7---7---7---7-|---7---7---7---7-|
          A-|-----------------|-----------------|-5---5---5---5---|-5---5---5---5---|
          E-|-----------------|-----------------|-----------------|-----------------|

          e-|-----------------|-----------------|-------------------------|--------------------------|
          B-|-----------------|-----------------|-------------------------|--------------------------|
          G-|---9---9---9---9-|---9---9---9---9-|-------------------------|--------------------------|
          D-|-7---7---7---7---|-7---7---7---7---|----12----12----12----12-|-----12----12----12----12-|
          A-|-----------------|-----------------|-10----10----10----10----|-10-----10----10----10----|
          E-|-----------------|-----------------|-------------------------|--------------------------|

          e-|---------|---------------|---------|---------------|    
          B-|---------|---------------|---------|---------------|
          G-|---7-7-7-|-----7---7---7-|---7-7-7-|-----7---7---7-|
          D-|---------|---6---6---6---|---------|---6---6---6---|          
          A-|-5-------|-5-------------|-5-------|-5-------------|
          E-|---------|---------------|---------|---------------|

          Guitar 2 Are Playing     Then Play This
          e-|-10-8-7----|          e-|---7---------|          
          B-|-------10--|          B-|-8---7-10-10-|
          G-|-----------|  x 3     G-|-------------|                  
          D-|-----------|          D-|-------------|
          A-|-----------|          A-|-------------| 
          E-|-----------|          E-|-------------|

          
          Riff 3
          e-|-------------|--------------|-------------|--------------|-------------|-------------|
          B-|-------------|--------------|-------------|--------------|-------------|-------------|
          G-|---9-9---9-9-|---9-9-10-9-7-|---9-9---9-9-|---9-9-10-9-7-|---7-7-7-7-7-|-------------|
          D-|-------------|--------------|-------------|--------------|-------------|---7-7-7-7-7-|
          A-|-7-----7-----|-7------------|-7-----7-----|-7------------|-5-----------|-------------|
          E-|-------------|--------------|-------------|--------------|-------------|-5-----------|

          e-|-------------|--------------|
          B-|-------------|--------------|
          G-|---9-9---9-9-|---9-9-10-9-7-|
          D-|-------------|--------------|
          A-|-7-----7-----|-7------------|
          E-|-------------|--------------|

          Riff 4
          e-|-------------|---------------|             e-|-----------------|-----------------|
          B-|-------------|---------------|             B-|-----------------|-----------------|
          G-|---7-7-7-7-7-|---------------| x3   THEN   G-|---9---9---9---9-|---9---9---9---9-|
          D-|-------------|---7-7-7-7-7-7-|             D-|-7---7---7---7---|-7---7---7---7---|
          A-|-5-----------|---------------|             A-|-----------------|-----------------|
          E-|-------------|-5-------------|             E-|-----------------|-----------------|

Verse:
     Guitar 1-Off

     Guitar 2
     e-|-----------------|-----------------|-----------------|-----------------|-----------------|-----------------|
     B-|-----------------|-----------------|-----------------|-----------------|-----------------|-----------------|
     G-|---9---9---9---9-|---9---9---9---9-|---9---9---9---9-|---9---9---9---9-|---7---7---7---7-|-----------------|
     D-|-7---7---7---7---|-7---7---7---7---|-7---7---7---7---|-7---7---7---7---|-5---5---5---5---|---5---5---5---5-|
     A-|-----------------|-----------------|-----------------|-----------------|-----------------|-3---3---3---3---|
     E-|-----------------|-----------------|-----------------|-----------------|-----------------|-----------------|

     e-|-----------------|-----------------|
     B-|-----------------|-----------------|
     G-|---9---9---9---9-|---9---9---9---9-|
     D-|-7---7---7---7---|-7---7---7---7---|
     A-|-----------------|-----------------|
     E-|-----------------|-----------------|

Bridge: (Both)
     e-|----------|---------|----------|----------|----------|---------|----------|-----------|
     B-|----------|---------|----------|----------|----------|---------|----------|-----------|
     G-|-9-9------|-5-------|-9-9------|-5---12---|-9-9------|-5-------|----------|-5---7-----|
     D-|-9-9------|-5---5---|-9-9------|-5---12---|-9-9------|-5---5---|-7-7------|-5---7--xx-|
     A-|-7-7------|-3---5---|-7-7------|-3---10---|-7-7------|-3---5---|-7-7------|-3---5--xx-|
     E-|----------|-----3---|----------|----------|----------|-----3---|-5-5------|--------xx-|

Heavy Verse: (Both)
     e-|-------------|-------------|-------------|--------------|--------|--------|-------------|-------------|
     B-|-------------|-------------|-------------|--------------|--------|--------|-------------|-------------|
     G-|-------------|-------------|-------------|--------------|--------|-7------|-------------|-------------|
     D-|-7-xxx-7-xxx-|-7-xxx-7-xxx-|-7-xxx-7-xxx-|-7-7-7-7-7-7/-|-5------|-7------|-7-xxx-7-xxx-|-7-xxx-7-xxx-|
     A-|-7-xxx-7-xxx-|-7-xxx-7-xxx-|-7-xxx-7-xxx-|-7-7-7-7-7-7/-|-5------|-5------|-7-xxx-7-xxx-|-7-xxx-7-xxx-|
     E-|-5-xxx-5-xxx-|-5-xxx-5-xxx-|-5-xxx-5-xxx-|-5-5-5-5-5-5/-|-3------|--------|-5-xxx-5-xxx-|-5-xxx-5-xxx-|

Heavy Chorus: (Both)
     e-|--------|--------|--------|--------|--------|--------|-------------|-------------|
     B-|--------|--------|--------|--------|--------|--------|-------------|-------------|
     G-|--------|-7------|-5------|--------|-7------|--------|-------------|-------------|
     D-|-5------|-7------|-5------|-5------|-7------|-5------|-7-xxx-7-xxx-|-7-xxx-7-xxx-|
     A-|-5------|-5------|-3------|-5------|-5------|-5------|-7-xxx-7-xxx-|-7-xxx-7-xxx-|
     E-|-3------|--------|--------|-3------|--------|-3------|-5-xxx-5-xxx-|-5-xxx-5-xxx-|

Solo 1:                                                                           _______________________________________
                                                                                 |2.
     e-|-----7h8-7------------|----7h8-7------------|----7h8-7---------7-|-------|-----7h8-7---------8-|-------|---------|
     B-|--10-------10-8h10~---|-10-------10-8h10~---|-10-------10-8-10---|-10~---|--10-------10-8-10---|-10~---|-(10~)---|
     G-|:---------------------|---------------------|--------------------|------:|---------------------|-------|---------| x2
     D-|:---------------------|---------------------|--------------------|------:|---------------------|-------|---------|
     A-|----------------------|---------------------|--------------------|-------|---------------------|-------|---------|
     E-|----------------------|---------------------|--------------------|-------|---------------------|-------|---------|

Solo 2:
     Guitar 1
     e-|-----------|------------|----------|--------|------------|-----------|-----------|--------|
     B-|-----------|-8~---------|----------|--------|-------10p8-|-8~--------|-----------|--------|
     G-|-9~---9p10-|------------|-7h9p7~---|-(7~)---|------------|------7~---|-9h10p9~---|-(9~)---| x2
     D-|-----------|------10~---|----------|--------|-10~--------|-----------|-----------|--------|
     A-|-----------|------------|----------|--------|------------|-----------|-----------|--------|
     E-|-----------|------------|----------|--------|------------|-----------|-----------|--------|

     Guitar 2
     e-|--------------|----------------|--------------|-------|--------------|----------------|--------------|-------|
     B-|--------------|----------------|--------------|-------|--------------|----------------|--------------|-------|
     G-|-9------------|-12------5------|-7------------|-(7)---|-5------------|-12------7------|-9------------|-(9)---| x2
     D-|-9------------|-12------5------|-7------------|-(7)---|-5------------|-12------7------|-9------------|-(9)---|
     A-|-7------------|-10------3------|-5------------|-(5)---|-3------------|-10------5------|-7------------|-(7)---|
     E-|--------------|----------------|--------------|-------|--------------|----------------|--------------|-------|

Solo 3:
     Guitar 1
     e-|-17p12----12-------------------------|-------------------------|-------------------------------------|-------|
     B-|-------15----15p12-15p12----12-------|----------12-15b17r15-15-|-13-12-13p12-12----------------------|-------|
     G-|-------------------------14----14p12-|----12-14----------------|----------------14-14p12/11h12p11----|-------|
     D-|-------------------------------------|-14----------------------|----------------------------------14-|-12~---|
     A-|-------------------------------------|-------------------------|-------------------------------------|-------|
     E-|-------------------------------------|-------------------------|-------------------------------------|-------|

     e-|-15b17-15p14p12----12-14-|-15-17-15-17b19-17-15-|-14-15-14--------------|---------------|
     B-|----------------15-------|----------------------|----------15-17-15-17~-|-(17~)---------|
     G-|-------------------------|----------------------|-----------------------|---------14b16-|
     D-|-------------------------|----------------------|-----------------------|---------------|
     A-|-------------------------|----------------------|-----------------------|---------------|
     E-|-------------------------|----------------------|-----------------------|---------------|

     e-|-12----12-15b17-15-14-12-|----12-------------------------------|--------------------------------|-------------|
     B-|----12-------------------|-15----15-13p12----12----------------|-12-----------------------------|-------------|
     G-|-------------------------|----------------14----14p12----12h14-|----14p12h----14b16-14b16-14b16-|-14b16r14~---|
     D-|-------------------------|----------------------------14-------|-----------14-------------------|-------------|
     A-|-------------------------|-------------------------------------|--------------------------------|-------------|
     E-|-------------------------|-------------------------------------|--------------------------------|-------------|

     e-|----------------------------|-------------------------------------------------|--------------------------------------|
     B-|----------------------------|-------------------------------------------------|-------------------------------15/17~-|
     G-|-14b16r14p12/11-12p11-12p11-|----11-------------------------------------------|----------12----14b16-12----12--------|
     D-|----------------------------|-14----14p12----12-------------------12-------12-|-14-14-14----14----------14-----------|
     A-|----------------------------|-------------14----14-13-12----12h14----12h14----|--------------------------------------|
     E-|----------------------------|----------------------------15-------------------|--------------------------------------|
                                                                              
     e-|---------|
     B-|-(17~)---|
     G-|---------|
     D-|---------|
     A-|---------|
     E-|---------|

     Guitar 2
     e-|--------------|----------------|--------------|-------|--------------|----------------|--------------|-------|
     B-|--------------|----------------|--------------|-------|--------------|----------------|--------------|-------|
     G-|-9------------|-12------5------|-7------------|-(7)---|-5------------|-12------7------|-9------------|-(9)---| x2
     D-|-9------------|-12------5------|-7------------|-(7)---|-5------------|-12------7------|-9------------|-(9)---|
     A-|-7------------|-10------3------|-5------------|-(5)---|-3------------|-10------5------|-7------------|-(7)---|
     E-|--------------|----------------|--------------|-------|--------------|----------------|--------------|-------|

Solo 4
     Guitar 1
     e-|--------|---------|---------|---------|--------|---------|--------|---------|
     B-|--------|---------|---------|---------|--------|---------|--------|---------|
     G-|-9------|-5-------|-9-------|-5-------|-9------|-5-------|--------|-5---7---|
     D-|-9------|-5---5---|-9-------|-5---5---|-9------|-5---5---|-7------|-5---7---|
     A-|-7------|-3---5---|-7-------|-3---5---|-7------|-3---5---|-7------|-3---5---|
     E-|--------|-----3---|---------|-----3---|--------|-----3---|-5------|---------|

     Guitar 2
     e-|-----------12-14-15-|-15p14p12-15p14p12----------------------|-------------------------|---------------------------|
     B-|-15b17~-------------|-------------------15p13p12-15-13-12----|-12----------------------|---------------------------|
     G-|--------------------|-------------------------------------14-|----14p12----12-14b16~---|-12h1412----12-------------|
     D-|--------------------|----------------------------------------|----------14-------------|---------14----14p12----12-|
     A-|--------------------|----------------------------------------|-------------------------|---------------------14----|
     E-|--------------------|----------------------------------------|-------------------------|---------------------------|

     e-|----------------------------------------|--------------12\14-15-17b19r17-|
     B-|----------------------------------12----|-12-15-12--15-------------------|
     G-|--------------12-----12-14-12--14----14-|--------------------------------|
     D-|-14-14-12--14----14---------------------|--------------------------------|
     A-|----------------------------------------|--------------------------------|
     E-|----------------------------------------|--------------------------------|

     e-|-15-15-15-14-14-14-15-15-15-14-14-14-|-17-15-14----------|
     B-|-------------------------------------|----------15b17~---|
     G-|-------------------------------------|-------------------|
     D-|-------------------------------------|-------------------|
     A-|-------------------------------------|-------------------|
     E-|-------------------------------------|-------------------|

Solo 5:
     Guitar 1
     e-|-------------------|----------------------|-------------------|---------------------|
     B-|-------------------|----------------12~---|-------------------|---------------------|
     G-|-9h11h12p11p9-9~---|-9h11h12p11p9-9-------|-9h11h12p11p9-9~---|-9h11h12p11p9-9-7~---| x4
     D-|-------------------|----------------------|-------------------|---------------------|
     A-|-------------------|----------------------|-------------------|---------------------|
     E-|-------------------|----------------------|-------------------|---------------------|

     Guitar 2-Off

Solo 6:
     Guitar 1
     e-|-12-0-0-0-7-0-0-0-10-0-0-0-5-0-0-0-8-0-0-0-3-0-0-0-5-0-0-0-2-3-2-0-|
     B-|-------------------------------------------------------------------|
     G-|-------------------------------------------------------------------| x4
     D-|-------------------------------------------------------------------|
     A-|-------------------------------------------------------------------|
     E-|-------------------------------------------------------------------|
Copyright Torsten Engström (crazy_trane@hotmail.com)
Tab from Maiden World - (http://www.maiden-world.com/)
Click here for printable version



You are here: Home > Tabs > Iron Maiden - The Clansman Guitar Tab


All content, images and other resources are the property of their respective copyright holders
Specific website content & style is copyright © 2003-2018 maiden-world.com, All Rights Reserved
Admin E-mail: admin AT maiden-world DOT com , Site Design by Jon Simpson