www.maiden-world.com
Site
Home
Forum
Wiki
DC Hub
Donate
Links
Contact
About

Content
Albums
Articles
Bootleg DB
Concerts/Gigs
Collectables
Merchandise
Lyrics
Tabs
Tribute Albums
Videos
Ed Hunter
Concert Tickets

Downloads
Mobile
Wallpaper
Bootleg Manager
Other Downloads

Maiden World - Iron Maiden news, discussion, information and articles
Iron Maiden - Out Of The Silent Planet Bass Tab

You are here: Home > Iron Maiden Tabs > Iron Maiden - Out Of The Silent Planet Bass Tab

Information

About this tab
Song: Iron Maiden - Out Of The Silent Planet
Author: Tom Abell
Type: Bass
Album: Brave New World
Track no: 9

Author Comments

Tuning : EADG

Copyright

This tab is the author's own work and represents their interpretation of the song. You may only use this file for private study, scholarship, or research.


Tab

Click here for printable version
INTRO
G--------------------------------------------
D--------------------------------------------
A--------------------------------------------
E----0--5-3---0--5-3---0--5-3---0--5-8--5----

BUILD UP (x4)
G---------------------------------------------------
D---------------------------------------------------
A---7—7-7-7--3--3-3-3---------------5--5-5-5--------
E-----------------------3--3-3-3--------------------

FAST HEAVY PART
G-------------------------------------------------------------
D-------------------------------------------------------------
A---77777--77777--77777--77777--77777--77777--77777--77777----
E-------------------------------------------------------------

VERSE
G----------------------------------------
D----------------------------------------
A----7-77777-7-77777—3-33333—5-55555-----
E----------------------------------------

G---------------------------------------------
D---------------------------------------------
A----7-77777-7-77777---3-33333---0-00000------
E---------------------------------------------

G---------------------------------------
D---------------------------------------
A----7-77777-7-77777—3-33333—5-55555----
E---------------------------------------

G---------------------------------------
D---------------------------------------
A----7-77777-7-77777—3-33333—5-55555----
E---------------------------------------



BRIDGE
G-------------------------------------------------------------
D-------------------------------------------------------------
A---0-000--3-333---------2-222----0-000--3-333--5-555-5-555---
E-----------------0-000---------------------------------------

CHORUS #1 (x2)
G--------------------------------------------
D--------------------------------5-----------
A---7---3-------5--------7---3-------5-------
E-----------3--------------------------------

CHORUS #2,3,4,5 (x2) 
G--------------------------------------------------------------
D--------------------------------------------------------------
A----77777777777--33333333333---------------55555555555--------
E------------------------------33333333333---------------------

G--------------------------------------------------------------
D------------------------------55555555555---------------------
A----77777777777--33333333333---------------55555555555--------
E--------------------------------------------------------------

TWIN GUITAR PART (x4)
G--------------------------------------------------------------
D--------------------------------------------------------------
A----77777777777--33333333333---------------55555555555--------
E----------------------------- 33333333333---------------------

SOLO PART 1 (x24)
G------------------------
D--------------5---------
A----7-5-7-5-7-----------
E------------------------

SOLO PART 2
G--------------------------------------------
D--------------------------------------------        (x3)
A----3-333--5-555--7-777-7-777---------------
E--------------------------------------------

G--------------------------------------------
D--------------------------------------------        (x1)
A----3-333--5-555--2-222---3--5--------------
E--------------------------------------------

OUTRO (x5)
G---------------------------------------
D---------------------------------------
A-----77777--33333--------55555---------
E------------------33333----------------

END ON
G----------------------
D----------------------
A----------------------
E-----------0---------- (let ring)
Copyright Tom Abell
Tab from Maiden World - (http://www.maiden-world.com/)
Click here for printable version



You are here: Home > Tabs > Iron Maiden - Out Of The Silent Planet Bass Tab


All content, images and other resources are the property of their respective copyright holders
Specific website content & style is copyright © 2003-2018 maiden-world.com, All Rights Reserved
Admin E-mail: admin AT maiden-world DOT com , Site Design by Jon Simpson