www.maiden-world.com
Site
Home
Forum
Wiki
DC Hub
Donate
Links
Contact
About

Content
Albums
Articles
Bootleg DB
Concerts/Gigs
Collectables
Merchandise
Lyrics
Tabs
Tribute Albums
Videos
Ed Hunter
Concert Tickets

Downloads
Mobile
Wallpaper
Bootleg Manager
Other Downloads

Maiden World - Iron Maiden news, discussion, information and articles
Iron Maiden - Wrathchild Bass Tab

You are here: Home > Iron Maiden Tabs > Iron Maiden - Wrathchild Bass Tab

Information

About this tab
Song: Iron Maiden - Wrathchild
Author: onearmedbandit
Type: Bass
Album: Killers
Track no: 2

Author Comments

If I give you the lines I trust you'll be able to work out the arrangement (i.e. when different parts return etc) ~=slide

Copyright

This tab is the author's own work and represents their interpretation of the song. You may only use this file for private study, scholarship, or research.


Tab

Click here for printable version
Opening and verse of Wrathchild (commonly known as the main thing):

G: ----------------------------------------------------------------------------------
D: ---------------------------------5-5-4-5-7-5-4------------------------------------
A: -5-7-7-7----5-7-7-7----5-7-7-7-----------------5-5-7-7-7---5-7-7-7---5-7-7-7------ ETC.
E: ---------0----------0----------0-------------------------0---------0---------0----

G: ---------------------------------------------------------------------------------- Back 
D: ---------------------------------------------------------------------------------- to
A: -3--3-2--2-5-7-7-7---5-7-7-7-7-5-3--3-2--2-5-7-7-7---5-3--3-2--2--5--5-4--3-3-2--2 main
E: -------------------0-------------------------------0------------------------------ thing

CHORUS:

G: ----------------------------------------------------------------------------------
D: -----------------------------5-6-7------------------------------------------------
A: -5-7-7-7---7-5---5-------7---------5---5----7---7-5---5-------3-3-3-3-3-3-3-3-3---
E: ---------0-----7--7-6-5----0---------7---7----0-----7---7-6-5----------3---3------

-------------------------------------------
-------------------------------------------
-5-5-5-5-5-5-5-5-5-7-5---5---5-------------
----------5---5--------7---7---7-6-5-3-0---

Copyright onearmedbandit
Tab from Maiden World - (http://www.maiden-world.com/)
Click here for printable version



You are here: Home > Tabs > Iron Maiden - Wrathchild Bass Tab


All content, images and other resources are the property of their respective copyright holders
Specific website content & style is copyright © 2003-2018 maiden-world.com, All Rights Reserved
Admin E-mail: admin AT maiden-world DOT com , Site Design by Jon Simpson