www.maiden-world.com
Site
Home
Forum
Wiki
DC Hub
Donate
Links
Contact
About

Content
Albums
Articles
Bootleg DB
Concerts/Gigs
Collectables
Merchandise
Lyrics
Tabs
Tribute Albums
Videos
Ed Hunter
Concert Tickets

Downloads
Mobile
Wallpaper
Bootleg Manager
Other Downloads

Maiden World - Iron Maiden news, discussion, information and articles
Iron Maiden - Killers Guitar Tab

You are here: Home > Iron Maiden Tabs > Iron Maiden - Killers Guitar Tab

Information

About this tab
Song: Iron Maiden - Killers
Author: Chris Rezendes (dudemcrude@yahoo.com)
Type: Guitar
Album: Killers
Track no: 7

Author Comments

Notation Key ~: vibrato ^: bend .: palm mute r: release t: trill p: pull-off h: hammer-on x: ghost note /: slide up \: slide down

Copyright

This tab is the author's own work and represents their interpretation of the song. You may only use this file for private study, scholarship, or research.


Tab

Click here for printable version
Fill 1 x1 (keep trilling for a while... that's it... you've got it)
e|-------|
B|-------|
G|-------|
D|--0t2--|
A|-------|
E|-------|

Fill 2A x1            Fill 2B x1
  HARMONICS            HARMONICS
e|--12-----|         e|--19-----|
B|-----12--|         B|-----20--|
G|---------|         G|---------|
D|---------|         D|---------|
A|---------|         A|---------|
E|---------|         E|---------|

Fill 3A x2
e|--------------------------------------|
B|--------------------------------------|
G|--12\----12\--------------------------|
D|--12\----12\--(let ring for a while)--|
A|--10\----10\--------------------------|
E|--------------------------------------|

Fill 4 (in the background from the time Fill 3 starts until Fig. 1 starts right before
        Fig. 2)
e|------0-----0-----0-----0--|
B|----8-----8-----8-----8----|
G|--9-----9-----9-----9------|
D|---------------------------|
A|---------------------------|
E|---------------------------|

Fig. 1 x2
e|--------|------------|--------|--------|
B|--8/10--|--10/12-13--|--13\8--|--8/10--|
G|--7/ 9--|---9/11-12--|--12\7--|--7/ 9--|
D|--5/ 7--|---7/ 9-10--|--10\5--|--5/ 7--|
A|--------|------------|--------|--------|
E|--------|------------|--------|--------|

Fill 3B x1
e|-------|
B|-------|
G|--12\--|
D|--12\--|
A|--10\--|
E|-------|

Repeat Fill 3A x1
Repeat Fig. 1 x2

Fill 5 x1 (replaces Fill 4 under Figure 1, right before Figure 2 starts)
e|----12------12------12------12------12--------------------------------|
B|-------10------10------10------10------10----13-12-10----13-12-10-----|
G|--9-------9-------9-------9-------9-------9-----------12----------12--|
D|----------------------------------------------------------------------|
A|----------------------------------------------------------------------|
E|----------------------------------------------------------------------|

e|-----12------12------12------12------12-----------------------------------|
B|--10----10------10------10------10------10----13-12-10----13-12-10----10--|
G|-----------9-------9-------9-------9-------9-----------12----------12-----|
D|--------------------------------------------------------------------------|
A|--------------------------------------------------------------------------|
E|--------------------------------------------------------------------------|

Fig. 2A x2 (the part that tears some ass...)
  Guitar 1
e|---------------------------------------------------------------------|
B|---------------------------------------------------------------------|
G|--9------------------------------------------------------------------|
D|--9-999-999-999-999-999-999-999-99--0-5-4-0-5-4-0-5-4-0-5-4-5-7-5-7--|
A|--7-777-777-777-777-777-777-777-77-----------------------------------|
E|----000-000-000-000-000-000-000-00-----------------------------------|

  Guitar 2 (NOTE: he is actually just playing random harmonics, but this sounds
                  OK so I kept it)
e|--151515-1212----------------------------------------------------|
B|--------------1515-1212------------------------------------------|
G|------------------------1414-1212--------------------------------|
D|----------------------------------1414-1212----------------------|
A|--------------------------------------------1414-1212------------|
E|------------------------------------------------------1414-1212--|

Fig. 2B x2 (You walk through the subway, his eyes burn a hole in your back...)
  Guitar 1
e|---------------------------------------------------------------------|
B|---------------------------------------------------------------------|
G|--9------------------------------------------------------------------|
D|--9-999-999-999-999-999-999-999-99--0-5-4-0-5-4-0-5-4-0-5-4-5-7-5-7--|
A|--7-777-777-777-777-777-777-777-77-----------------------------------|
E|----000-000-000-000-000-000-000-00-----------------------------------|

  Guitar 2
e|------------------------------------------------------------------------|
B|------------------------------------------------------------------------|
G|--9---------------------------------------------------------------------|
D|--9-999-999-999-999-999-999-999-99----9-7----9-7---9-7---9-7-9-10-9-10--|
A|--7-777-777-777-777-777-777-777-77--7-----7------7-----7----------------|
E|----000-000-000-000-000-000-000-00--------------------------------------|

Fig. 3 x1 (Scream for mercy, he laughs as he's watching you bleed...)
e|----------------------------------------|
B|----------------------------------------|
G|--5-------------------9-----------------|
D|--5-555-555-555-555---9-999-999-999-99--|
A|--3-333-333-333-333---7-777-777-777-77--|
E|----------------------------------------|

e|--------------------------------------------------|
B|--------------------------------------------------|
G|--5-----------------12----------------------------|
D|--5-----------------12-121212-121212-121212-1212--|
A|--3-333-333-333-333-10-101010-101010-101010-1010--|
E|--------------------------------------------------|

e|----------------------------------------|---------------------|-----------------|
B|----------------------------------------|---------------------|-----------------|
G|--5-------------------9-----------------|--5------------------|------4-4-4-2----|
D|--5-555-555-555-555---9-999-999-999-99--|--5-555-555-555-555--|--4-4---------4--|
A|--3-333-333-333-333---7-777-777-777-77--|--3-333-333-333-333--|--2-2------------|
E|----------------------------------------|---------------------|-----------------|

e|-----------------|-----------------|-----------------|
B|-----------------|-----------------|-----------------|
G|------4-4-4-2----|------5-5-5-3----|------7-7-7-5----|
D|--4-4---------4--|--5-5---------5--|--7-7---------7--|
A|--2-2------------|--3-3------------|--5-5------------|
E|-----------------|-----------------|-----------------|

Repeat Fig. 2A x2
Repeat Fig. 2B x2
Repeat Fig. 3 x1

Riff 1 x2
e|----------------------------------|----------------------------|
B|--10^(12)-10-888-777--------------|--10^(12)-10-888-777--------|
G|---------------------999-7-9p7----|---------------------999-7--|
D|-------------------------------9--|----------------------------|
A|----------------------------------|----------------------------|
E|----------------------------------|----------------------------|

Fig. 4 x1
e|-----|--------|-------------------|-----|--------|------------------|
B|-----|--------|-------------------|-----|--------|------------------|
G|-----|--------|-------------------|-----|--------|--9-9-7--7--7--9--|
D|--5--|--7--7--|--999-777-777/9-9--|--5--|--7--7--|--9-9-7--7--7--9--|
A|--5--|--7--7--|--777-555-555/7-7--|--5--|--7--7--|--7-7-5--5--5--7--|
E|--3--|--5--5--|-------------------|--3--|--5--5--|------------------|

e|-----|--------|-------------------|-----|--------|
B|-----|--------|-------------------|-----|--------|
G|-----|--------|-------------------|-----|--------|
D|--5--|--7--7--|--999-777-777/9-9--|--5--|--7--7--|
A|--5--|--7--7--|--777-555-555/7-7--|--5--|--7--7--|
E|--3--|--5--5--|-------------------|--3--|--5--5--|

Fig. 5A x1 (I can see what a knife's meant to be)
e|-----------------------------|---------------------------------|
B|-----------------------------|---------------------------------|
G|-----------------------------|---------------------------------|
D|--3--------------------------|--2-3-5--------------------------|
A|--3-333-333-333-333-333-333--|--2-3-5-555-555-555-555-555-555--|
E|--1-111-111-111-111-111-111--|--0-1-3-333-333-333-333-333-333--|

e|---------------------------------|---------------------------------|
B|---------------------------------|---------------------------------|
G|--2-4-5--------------------------|--4-5-7--------------------------|
D|--2-4-5-555-555-555-555-555-555--|--4-5-7-777-777-777-777-777-777--|
A|--0-2-3-333-333-333-333-333-333--|--2-3-5-555-555-555-555-555-555--|
E|---------------------------------|---------------------------------|

e|-----------------------------|---------------------------------|
B|-----------------------------|---------------------------------|
G|-----------------------------|---------------------------------|
D|--3--------------------------|--2-3-5--------------------------|
A|--3-333-333-333-333-333-333--|--2-3-5-555-555-555-555-555-555--|
E|--1-111-111-111-111-111-111--|--0-1-3-333-333-333-333-333-333--|

e|---------------------------------|---------------------------------|
B|---------------------------------|---------------------------------|
G|--2-4-5--------------------------|--4-5-7--------------------------|
D|--2-4-5-555-555-555-555-555-555--|--4-5-7-777-777-777-777-777-777--|
A|--0-2-3-333-333-333-333-333-333--|--2-3-5-555-555-555-555-555-555--|
E|---------------------------------|---------------------------------|

Fig. 5B x1 (You'll never know how I came to foresee)
e|-----------------------------|---------------------------------|
B|-----------------------------|---------------------------------|
G|-----------------------------|---------------------------------|
D|--3--------------------------|--2-3-5--------------------------|
A|--3-333-333-333-333-333-333--|--2-3-5-555-555-555-555-555-555--|
E|--1-111-111-111-111-111-111--|--0-1-3-333-333-333-333-333-333--|

e|---------------------------------|---------------------------------|
B|---------------------------------|---------------------------------|
G|--2-4-5--------------------------|--4-5-7--------------------------|
D|--2-4-5-555-555-555-555-555-555--|--4-5-7-777-777-777-777-777-777--|
A|--0-2-3-333-333-333-333-333-333--|--2-3-5-555-555-555-555-555-555--|
E|---------------------------------|---------------------------------|

e|-----------------------------|---------------------------------|
B|-----------------------------|---------------------------------|
G|-----------------------------|---------------------------------|
D|--3--------------------------|--2-3-5--------------------------|
A|--3-333-333-333-333-333-333--|--2-3-5-555-555-555-555-555-555--|
E|--1-111-111-111-111-111-111--|--0-1-3-333-333-333-333-333-333--|

e|---------------------------------|-----------------|
B|---------------------------------|-----------------|
G|--2-4-5--------------------------|--4-5-7---7---7--|
D|--2-4-5-555-555-555-555-555-555--|--4-5-7---7---7--|
A|--0-2-3-333-333-333-333-333-333--|--2-3-5---5---5--|
E|---------------------------------|-----------------|

Riff 2 x1 (under solo)
e|---------------------------------|-----------------------------------------|
B|---------------------------------|-----------------------------------------|
G|---------------------------------|-----------------------------------------|
D|--9-999-999-999-999-999-999-999--|--5-555-555---7-777-777---9-999-999-999--|
A|--7-777-777-777-777-777-777-777--|--3-333-333---5-555-555---7-777-777-777--|
E|---------------------------------|-----------------------------------------|

e|-------------------|-------------------|-------------|-------------------------------|
B|-------------------|-------------------|-------------|-------------------------------|
G|-------------------|-------------------|-------------|-------------------------------|
D|--7-9-999-999-999--|--7-9-999-999-999--|--7-555-555--|----7-777----9-999-999-999-99--|
A|--5-7-777-777-777--|--5-7-777-777-777--|--5-333-333--|--7-5-555--9-7-777-777-777-77--|
E|-------------------|-------------------|-------------|--5--------7-------------------|

Riff 3 x2 (under solo)
e|-----------------|-----------------------------|------------------|-------------------|
B|-----------------|-----------------------------|------------------|-------------------|
G|-----------------|-----------------------------|------------------|-------------------|
D|-----------------|-----------------------------|------------------|-------------------|
A|--7-777-777-777--|--9-10-101010-101010-101010--|--2-5-555--7-999--|--5-7-777-777-777--|
E|--5-555-555-555--|--7--8--8-8-8--8-8-8--8-8-8--|--0-3-333--5-777--|--3-5-555-555-555--|

e|-----|
B|-----|
G|-----|
D|-----|
A|--5--|
E|--3--|

Repeat Fig. 4 x1

Fig. 6 x1
e|---------------------------------|------------------------------------------------|
B|---------------------------------|------------------------------------------------|
G|---------------------------------|------------------------------------------------|
D|--9------------------------------|--10---------------------12---------------------|
A|--9-999-999-999-999-999-999-999--|--10-101010-101010-1010--12-121212-121212-1212--|
E|--7-777-777-777-777-777-777-777--|---8--8-8-8--8-8-8--8-8--10-101010-101010-1010--|

Repeat Fig. 2B x4
Repeat Fig. 3 x1
Repeat Fig. 2A x2
Repeat Fig. 2B x2
Repeat Fig. 3 x1
Repeat Fig. 2B x1

End x1
e|------|--------|
B|------|--------|
G|--9\--|--9--9--|
D|--9\--|--9--9--|
A|--7\--|--7--7--|
E|------|--------|
Copyright Chris Rezendes (dudemcrude@yahoo.com)
Tab from Maiden World - (http://www.maiden-world.com/)
Click here for printable version



You are here: Home > Tabs > Iron Maiden - Killers Guitar Tab


All content, images and other resources are the property of their respective copyright holders
Specific website content & style is copyright © 2003-2018 maiden-world.com, All Rights Reserved
Admin E-mail: admin AT maiden-world DOT com , Site Design by Jon Simpson