www.maiden-world.com
Site
Home
Forum
Wiki
DC Hub
Donate
Links
Contact
About

Content
Albums
Articles
Bootleg DB
Concerts/Gigs
Collectables
Merchandise
Lyrics
Tabs
Tribute Albums
Videos
Ed Hunter
Concert Tickets

Downloads
Mobile
Wallpaper
Bootleg Manager
Other Downloads

Maiden World - Iron Maiden news, discussion, information and articles
Iron Maiden - Where Eagles Dare Bass Tab

You are here: Home > Iron Maiden Tabs > Iron Maiden - Where Eagles Dare Bass Tab

Information

About this tab
Song: Iron Maiden - Where Eagles Dare
Author: G. Crisan ( crisan@shadow.net )
Type: Bass
Album: Piece Of Mind
Track no: 1

Author Comments

Tab explanations ------------------------------------------------------ > Accent | / Slide up . Staccatto | \ Slide down h Hammer-on/ pull off | : Harmonic | ~ slight bend ------------------------------------------------------

Copyright

This tab is the author's own work and represents their interpretation of the song. You may only use this file for private study, scholarship, or research.


Tab

Click here for printable version
Intro
-------------|----------------------------------------------------------------
-------------|.---------------------------------------------------------------
----------7\-|.--------7--7---------5---5----------3-3-3-3-2--------------7--7
-------------|--0-0-0--------0-0-0----------0-0-0-------------3----0-0-0------
 Drum Intro


-------------------------------------|----------------------------------------
------------------------------------.|----------------------------------------
--------5--5----------3-3-3-3-2-----.|---2--2--2-2-2--2--2-2--3--3--3-3-3--3--
-0-0-0---------0-0-0-------------3---|----------------------------------------

------------------------------------------------------------------------------
--------------------------->->->-->->->>--------------------------------------
-3-3--2--2--2-2-2--2--2-2--3-3-3--5-5-55--------------7--7----------5--5------
-----------------------------------------------0-0-0---------0-0-0-------0-0-0

------------------------------------------------------------------------------
------------------------------------------------------------------------------
--3-3-3-3-2--------------7--7---------55--5---------3-3-3-3-2----------7--7---
-------------3----0-0-0--------0-0-0---------0-0-0------------3--0-0-0--------

------------------------------------------------------------------------------
------------------------------------------------------------------------------
--------5--5---------3-3-3-3-2---------------------.-->->---------------3-2---
-0-0-0--------0-0-0-------------3----0--0-0-0-0-0--3--5-5--0-0-0-0-0-0------3-

------------------------------------------------------------------------------
------------------------------------------------------------------------------
--------7--7---------5--5---------3-3-33-3-2-------------------.-->->---------
-0-0-0--------0-0-0--------0-0-0-------------3----0-0-0-0-0-0--3--5-5--0-0-0--

------------------------------------------------------------------------------
------------------------------------------------------------2-----------------
--------3-2-----2--2-2-2-2--2--2-2-2-2---2--2-2-2-2---3--5-----5--5-5-5-5--5--
-0-0-0------3-----------------------------------------------------------------

------------------------------------------------------------------------------
--------------------------------------------------------------------------2---
-5-5-5-5--5--5-5-5-5--2--3--5--3--3-3-33-3--3--3-3-3-3--3--3-3-3-3--3--5------
------------------------------------------------------------------------------

------------------------------------------------------------------------------
----------------------------------------------------->-->---------------------
--5--5-5-5-5--5--5-5-5-5---2--2-2-2-2---2--2-2-2-2---3--5------------7--7-----
--------------------------------------------------------------0-0-0--------0--

------------------------------------------------------------------------------
------------------------------------------------------------------------------
-------5--5----------3-3-3-3-2--------------------.-->->----------------3-2---
--0-0---------0-0-0-------------3---0-00-0-0-0-0--3--5-5---0-0-0-0-0-0------3-

------------------------------------------------------------------------------
------------------------------------------------------------------------------
--------7--7---------5--5--------3-3-3--3-2------------------.-->->-----------
-0-0-0--------0-0-0--------0-0-0------------3---0-0-0-0-0-0--3--5-5--0-0-0-0-0

------------------------------------------------------------------------------
------------------------------------------------------2-----------------------
----3-2----2--2-2-2-2--2--2-2-2-2--2--22-2-2-2---3--5-----5--5-5-5-5--5---5-5-
-0------3---------------------------------------------------------------------

------------------------------------------------------------------------------
------------------------------------------------------------------------------
--5-5--5---5--5-5-5-5---2--2-2-2-2--2---2-2-2-2---3--5---7-7-7-7\-------------
-------------------------------------------------------------------0-0-0-0-0--

------------------------------------------------------------------------------
------------------------------------------------------------------------------
-7-7-7-7--5-5-5-5-5-5--7-7-7-7\--------------7-7-7-7--5-5-5-7-7-7--5-5-5-5\---
---------------------------------0-0-0--0-0-----------------------------------

------------------------------------------------------------------------------
------------------------------------------------------------------------------
-------------5-5-5-5---------5-5-5--7-77-7-7\-------------7-7-7-7--5-5-5-5-5-5
--0-0-0-0-0-----------7-7-7--------------------0-0-0-0-0----------------------

------------------------------------------------------------------------------
------------------------------------------------------------------------------
-7-7-7-7\-------------7-7-7-7--5-5-5-5--5-5--7-7-7-7\-------------7-7-7-7--5-5
-----------0-0-0-0-0-----------------------------------0-0-0-0-0--------------

------------------------------------------------------------------------------
------------------------------------------------------------------------------
-5-7-7-7---5-5-5-5\-------------5-5-5-55---------5-5-5--7-7-7-7\--------------
---------------------0-0-0-0-0------------7-7-7--------------------0-0-0-0-0--

------------------------------------------------------------------------------
------------------------------------------------------------------------------
-7-7-7-7--5-5-5-5-5-5---7-7-7-7\---------------7-7-7-7--5-5-5-5-5-5--7-7-7-7\-
-----------------------------------0-0--0-0-0---------------------------------
                        Guitar 2 
                        harmonizes


------------------------------------------------------------------------------
------------------------------------------------------------------------------
------------7-7-7-7--5-5-5-7-7-7--5-5-55-5\-------------0-5-5-5---------5-5-5-
-0-0-0-0-0-----------------------------------0-0-0-0-0-----------7-7-7--------

------------------------------------------------------------------------------
------------------------------------------------------------------------------
-7-7-7-7\-------------7-7-7-7--5-5-5-5--5-5--7-7-7-7\--------------7-7-7-7----
-----------0-0-0-0-0------------------------------------0-0-0-0-0-------------

------------------------------------------------------------------------------
------------------------------------------------------------------------------
-5-5-5-5-5-5--7-7-7-7\-------------7-7--7--5-5-5-7-7-7--5-5-5-5\--------------
------------------------0-0-0-0-0---------------------------------0-0-0-0-0---

------------------------------------------------------------------------------
------------------------------------------------------------------------------
-5-5-5-5---------5-5-5--7-7-7-7\--------------0-7-7-7--5-5-5-5\--.----------.-
----------7-7-7-------------------0-0-00-0-0---------------------0--0-0-0-0-0-
                                                                Solo part
                                                                         

------------------------------------------------------------------------------
------------------------------------------------------------------------------
---------.-----------.--->-->-----------.----------.----------.--->--.--------
-0-0-0-0-0---0-0-0-0-0---0--3--3-3-3-3--3--3-3-3-3-3--3-3-3-3-3---3--0--0-0-0-
     
------------------------------------------------------------------------------
------------------------------------------------------------------------------
---.-----------.----------.--->-->-----------.----------->-->-->-->-->-->-----
-0-0---0-0-0-0-0--0-0-0-0-0---0--3--3-33-3-3-3---333--0--3--3--3--3--3--3-----

------------------------------------------------------------------------------
------------------------------------------------------------------------------
-.----------.----------.-----------.---->-->----------.----------.----------.-
-0--0-0-0-0-0--0-0-0-0-0---0-0-0-0-0----0--3--3-3-3-3-3--3-3-3-3-3--3-3-3-3-3-

------------------------------------------------------------------------------
------------------------------------------------------------------------------
->--.----------.----------.----------.---->-->----------.-----------.---------
-3--0--0-0-0-0-0--0-0-0-0-0--0-0-0-0-0----0--3--3-3-3-3-3---3-3-3-3-3--3-3-3-3

------------------------------------------------------------------------------
------------------------------------------------------------------------------
-.----------------.-----------.------------.------>----------.----------.-----
-3--5--0--0-0-0-0-0---0-0-0-0-0---0-0-00-0-0---0--3--3-3-3-3-3--3-3-3-3-3--3-3

------------------------------------------------------------------------------
------------------------------------------------------------------------------
-----.--->-->-----------.----------.-----------.--->-->----------.----------.-
-3-3-3---3--0---0-0-0-0-0--0-0-0-0-0--00-0-0-0-0---0--3--3-3-3-3-3--3-3-3-3-3-

------------------------------------------------------------------------------
------------------------------------------------------------------------------
---------.--->-->----------.----------..----------.-->-->----------.----------
-3-3-3-3-3---3--0--0-0-0-0-0--0-0-0-0-00--0-0-0-0-0--0--3--3-3-3-3-3--3-3-3-3-
                Dual Guitar       
                

------------------------------------------------------------------------------
------------------------------------------------------------------------------
-.----------.-->-->----------.-----------.----------.-->-->----------.--------
-3--3-3-3-3-3--3--0--0-0-0-0-0--0-0-0-00-0--0-0-0-0-0--0--3--3-3-3-3-3--3-3-3- 

----------------------------9-9--9-9-9---9-9-9--9-9-9--9-9-9--9-9-9--9-9------
------------------------------------------------------------------------------
---.----------.-----.-----7---------------------------------------------------
-3-3--3-3-3-3-3--3--0---0------------------------------------------------10--0

-12-12-12--12-12-12--12-12-12--12-12-122--12-12-12--12-12-12--12-12--------9-9
------------------------------------------------------------------------------
-------------------------------------------------------------------------7----
---------------------------------------------------------------------0--0-----

-9-9-9--9-9-9--9-9-9--9-9-9--9-9-9--9-99-----------12-12--12-12-12--12-12-12--
------------------------------------------------------------------------------
-----------------------------------------------10-----------------------------
-----------------------------------------10--0--------------------------------

-14-14-14--14-14-14--14-14-14--14\--------------------------------------------
--------------------------------------..--.--5------.-----5------.-----5------
--------------------------------------77--7-----7-7-7--7-----7-7-7--7-----7-7-
------------------------------------------------------------------------------

---------->-------------------------------------------------------->-------->-
--7-------5--.---.---5------.-------5-------.------5-------7-------5--.--.--5-
-----7-7-----7---7------7-7-7---7-------7-7-7---7-----7-7-----7-7-----7--7----
------------------------------------------------------------------------------

------------------------------------------>-----------------------------------
------.-----5------.-----5-------7--------5--.--.--5------.------5------.-----
--7-7-7--7-----7-7-7--7-----7-7-----7-77-----7--7-----7-7-7---7-----7-7-7--7--
------------------------------------------------------------------------------

------------------>---------------------------------------------------------11
--5-------7-------5--.--.----------.--------------.----------------------11--- 
-----7-7-----7-7-----9--9--12--9-9-9--99--12--9-9-9--9--12--9-9--12--14-------
------------------------------------------------------------------------------

--------------------------------------------------------------------11--------
--11--------.--.----------.--------------.----------------------11------11----
------14----9--9--12--9-9-9--9--12--9-99-9--9--12--9-9--12--14--------------14
------------------------------------------------------------------------------

------------------------------------------------------->----------------------
--.--.--5------.------5------.-------5---------7-------5--.---.--5-----.------
--7--7-----7-7-7---7-----7-7-7---7--------7-7-----7-7-----7---7----7-7-7--7---
------------------------------------------------------------------------------

------------------------------>-----------------------------------------------
-5-----.-----5-------7--------5-----------------------------------------------
---7-7-7--7-----7-7-----7-7---------7-77-7-7\----------.---7-7-7-7--5-5-5-5-5-
-----------------------------------------------0-0-0-0-0----------------------


------------------------------------------------------------------------------
------------------------------------------------------------------------------
--5--7-7-7-7\-----------.---7-7-7-7--5--5-5-7-7-7--5-5-5-5\----------.--5-5-5-
----------------0-0-0-0-0------------------------------------0-0-0-0-0--------

------------------------------------------------------------------------------
------------------------------------------------------------------------------
--5---------5-5-5--7-7-7-7\-----------..---7-7-7-7--5-5-5-5-5-5--7-7-7-7\-----
-----7-7-7--------------------0-0-0-0-00--------------------------------------

------------------------------------------------------------------------------
------------------------------------------------------------------------------
----------.---7-7-7-7--5-5-5-5-5-5--7-77-7-7\-------------7-7-7-7--5-5-5-7-7-7
--0-0-0-0-0------------------------------------0-0-0-0-0----------------------

------------------------------------------------------------------------------
------------------------------------------------------------------------------
--5-5-5-5\-----------.---5-5-5-5----------5-5-5--7-7-7-7\----------.---7-7-7-7
-------------0-0-0-0-0------------7-7-77-------------------0-0-0-0-0----------

------------------------------------------------------------------------------
------------------------------------------------------------------------------
--5-5-5-5-5-5--7-7-7-7\----------.--7-77-7-7--5-5-5-5-5-5--7-7-7-7\----------.
-------------------------0-0-0-0-0-----------------------------------0-0-0-0-0
               Guitar 2 
              doubles up


------------------------------------------------------------------------------
------------------------------------------------------------------------------
--7-7-7-7--5-5-5-7-7-7--5-5-5-5\-----------.---5-5-5-5---------5-5-5--7-7-7-7\
----------------------------------0-0-00-0-0------------7-7-7-----------------

------------------------------------------------------------------------------
------------------------------------------------------------------------------
---------.---7-7-7-7--5-5-5-5-5-5--7-7--7-7\----------.--7-7-7-7--5-5-5-5-5-5-
-0-0-0-0-0------------------------------------0-0-0-0-0-----------------------
                                   Guitar 1
                                    enters


------------------------------------------------------------------------------
------------------------------------------------------------------------------
--7-7-7-7\----------.---7-7-7-7--5-5-5--7-7-7--5-5-5-5\----------.---5-5-5-5--
------------0-0-0-0-0------------------------------------0-0-0-0-0------------

------------------------------------------------------------------------------
------------------------------------------------------------------------------
---------5-5-5--7-7-7-7\----------.---77-7-7-7--5-5-5-5\----------7--7--------
--7-7-7-------------------0-0-0-0-0------------------------0-0-0---------0-0-0

------------------------------------------------------------------------------
------------------------------------------------------------------------------
--5--5-----------3-3-3-3-2------------77---7----------5--5----------3-3-3-3-2-
---------0-0-0-------------3---0-0-0-----------0-0-0---------0-0-0------------

------------------------------------------------------------------------------
------------------------------------------------------------------------------
------------7--7----------5--5------------3-3-3-3-2------------7--7---------5-
-3---0-0-0---------0-0-0---------0-0-0--------------3---0-0-0--------0-0-0----

------------------------------------------------------------------------------
------------------------------------------------------------------------------
-5---------3-3-3-3-2-----2--2--2-2-2--22--2-2--3--3--3-3-3--3-3-3--2--2--2-2-2
----0-0-0------------3--------------------------------------------------------

------------------------------------------------------------------------------
---------->->->-->->->--------------------------------------------------------
--2--2-2--3-3-3--5-5-5----------7--7-----------5--5----------3-3-3-3-2--------
-------------------------0-0-0----------0-0-0---------0-0-0------------3---0-0

------------------------------------------------------------------------------
------------------------------------------------------------------------------
----------.-->->-----------------3--2--------------7--7---------5--5----------
-0-0-0-0--3--5-5---0-0-0-0-0-0----------3---0-0-0---------0-0-0-------0-0-0---

------------------------------------------------------------------------------
------------------------------------------------------------------------------
--3-3-3-3-2-------------------.-->->----------------3--2-----2--2-2-2-2--2--2-
-------------3---0-0-0-0-0-0--3--5-5--00-0-0-0-0-0--------3-------------------

------------------------------------------------------------------------------
----------------------------2-------------------------------------------------
--2-2-2--2--2-2-2-2---3--5-----5--5-5-55-5--5-5-5-5-5--5--5-5-5-5--2--3--5--3-
------------------------------------------------------------------------------

------------------------------------------------------------------------------
-----------------------------------------2------------------------------------
-3-3-3-3--3--3-3-3-3--3--3-3-3-3--3--5------5--5-5-5-5--5--5-5-5-5--2--2-2-2-2
------------------------------------------------------------------------------

------------------------------------------------------------------------------
--------------->-->-----------------------------------------------------------
--2--2-2-2-2---3--5-----------7--7-----------5--5----------3-3-3-3-2----------
-----------------------0-0-0---------0--0-0---------0-0-0------------3---0-0-0

------------------------------------------------------------------------------
------------------------------------------------------------------------------
--------.-->->---------------3-2--------------7--7----------5--5----------3-3-
-0-0-0--3--5-5--0-0-0-0-0-0-------3---00-0-0---------0-0-0---------0-0-0------

------------------------------------------------------------------------------
------------------------------------------------------------------------------
-3-3-2--------------------.-->->----------------3-2-------2--2-2-2-2--2--2----
--------3---0-0-0-0-0-0---3--5-5--0-0-00-0-0-0-------3------------------------

------------------------------------------------------------------------------
----------------------------2-------------------------------------------------
--2-2-2--2--2-2-2-2---3--5-----5--5-5-55-5--5-5-5-5-5--5--5-5-5-5--2--3--5--3-
------------------------------------------------------------------------------

------------------------------------------------------------------------------
-----------------------------------------2------------------------------------
-3-3-3-3--3--3-3-3-3--3--3-3-3-3--3--5------5--5-5-5-5--5--5-5-5-5--2--2-2-2-2
------------------------------------------------------------------------------

------------------------------------------------------------------------------
--------------->-->-----------------------------------------------------------
--2--2-2-2-2---3--5-----------7--7-----------5--5----------3-3-3-3-2----------
-----------------------0-0-0---------0--0-0---------0-0-0------------3---0-0-0

------------------------------------------------------------------------------
------------------------------------------------------------------------------
--7--7-----------5--5-----------3-3-3-33-2--------------7--7---------5--5-----
---------0-0-0----------0-0-0---------------3----0-0-0---------0-0-0-------0--
    
------------------------------------------------------------------------------
------------------------------------------------------------------------------
-------3-3-3-3-2-------------7--7------------5--5----------3-3-3-3-2----------
--0-0-------------3---0-0-0---------0-00-0----------0-0-0------------3--------

------------------------------------------------------------------------------
----------------------------------------------------------------->->->-->->->-
--2--2--2-2-2--2--2-2--3--3--3-3-3--3-33-3--2--2--2-2-2--2--2-2--3-3-3--5-5-5-
------------------------------------------------------------------------------
                                                             Ritard.    
                                                            
--------------------9999999---97----97----97----------------------------------
---------------999---------------9------9----9--9--7--------------------------
--777-7-7-7777-----------------------------------------9---7------------------
--------------------------------------------------------------9--7---00000000-

-----------------------------------------------||
-----------------------------------------------||
--------------------------------------77-7-7-7\||
-0000000000000000000000000000000---------------||
                  Wait for Drum cue
Repeat
Copyright G. Crisan ( crisan@shadow.net )
Tab from Maiden World - (http://www.maiden-world.com/)
Click here for printable version



You are here: Home > Tabs > Iron Maiden - Where Eagles Dare Bass Tab


All content, images and other resources are the property of their respective copyright holders
Specific website content & style is copyright © 2003-2018 maiden-world.com, All Rights Reserved
Admin E-mail: admin AT maiden-world DOT com , Site Design by Jon Simpson