www.maiden-world.com
Site
Home
Forum
Wiki
DC Hub
Donate
Links
Contact
About

Content
Albums
Articles
Bootleg DB
Concerts/Gigs
Collectables
Merchandise
Lyrics
Tabs
Tribute Albums
Videos
Ed Hunter
Concert Tickets

Downloads
Mobile
Wallpaper
Bootleg Manager
Other Downloads

Maiden World - Iron Maiden news, discussion, information and articles
Iron Maiden - Flight Of Icarus Bass Tab

You are here: Home > Iron Maiden Tabs > Iron Maiden - Flight Of Icarus Bass Tab

Information

About this tab
Song: Iron Maiden - Flight Of Icarus
Author: G. Crisan ( crisan@shadow.net )
Type: Bass
Album: Piece Of Mind
Track no: 3

Author Comments

Tab explanations ------------------------------------------------------------------------------ > Accent | / Slide up | w whole note . Staccatto | \ Slide down | h half note h Hammer-on/ pull off | : Repeat | q quarter Harmonic | ~ slight bend | e eigth note [] tied notes | + dotted note | s sixteenth note --------------------------------------------------------------------------

Copyright

This tab is the author's own work and represents their interpretation of the song. You may only use this file for private study, scholarship, or research.


Tab

Click here for printable version
Intro
  q   q   e  s s e  s s e  s s e  s s e  s s e  s s e  s s e  s s e  s s e
-->--->-----------------------------------------------------------------------
--7---2-----------------------------------------------------------------------
------------------------------------------------------------------------------
----------2--2-2-2--2-2-2--2-2-2--2-2-2---2-2-2--2-2-2--2-2-2--2-2-2--2-2-2---

 s s e  s s e  s s e  s s e  s s   e e  s s e   e  s s e  s s e  s s e  s s e
------------------------------------------------------------------------------
-------------------------------------------------4--4-4-4--4-4----------------
-----------------------------------.-.----------------------------------------
-2-2-2--2-2-2--2-2-2--2-2-2--2-2---2-2---2-2-2-----------------2--2-2-2--2-2-2
                                                "As the Sun breaks..."

 s s e  s s e  s s e  s s e  s s e  s s e  s s e  s s e  s s e  s s e  s s
------------------------------------------------------------------------------
------------------------------------------------------------------------------
------------------------------------------------------------------------------
-2-2-2--2-2-2--2-2-2--2-2-2--2-2-2--2-2--2--2-2-2--2-2-2--2-2-2--2-2-2--2-2---


 e e  q  e  s s e  s s e  s s e  s s e  s s e  s s  e e  q  e  s s e  s s e
------------------------------------------------------------------------------
------------------------------------------------------------------------------
-.-.-->-->-------------------------------------------.-.-->-->----------------
-2-2--5--0--0-0-0--0-0-0--0-0-0--0-0-0---0-0-0--0-0--0-0--5--2--2-2-2--2-2-2--

 s s e  s s e  s s  e e  s s e   q  q+  e  s s e   q  q+  e  s s e  q  q+
------------------------------------------------------------------------------
------------------------------------4------------------6----------------7-----
--------------------.-.-------------------------------------------------------
-2-2-2--2-2-2--2-2--2-2--2-2-2---2-------2--2-2-2---4------4--4-4-4--5--------

 e  s s e    q  q    e  e   s s e   q q+  e  s s e   q q  e e  e s s   s s e+
---------------------.--.---------------------------------------9-------------
----------------9---11-11--11-9-7-----4----------------------9----9-7\--------
--------------------------------------------------------7--7------------5-5-5-
--5--5-5-5---7----------------------2------2--2-2-2---0-----------------------

 s s s e+ s s s e+ s s s e    q q+  e  s s e   q q  e  e   e  e    s s e+ s s
-----------------------------------------------------------14-----------------
--------------------------------4--------------------9-11-----14\-------------
-5-5-5-5--5-5-5-5--5-7-7-7\-----------------------7-----------------5-5-5--5-5
------------------------------2-----2--22-2-2---0-----------------------------

 s e+ s s s e+ s s s e    e  s s e  s s e  s s e  s s e  s s e  s s e  s s e
------------------------------------------------------------------------------
------------------------------------------------------------------------------
-5-5--5-5-5-5--5-7-7-7\-------------------------------------------------------
--------------------------2--2-2-2--2-2--2--2-2-2--2-2-2--2-2-2--2-2-2--2-2-2-

 s s e  s s e  s s e  s s e  s s e  s s e  s s  e e  s s e  e  s s e  s s s s
------------------------------------------------------------------------------
-------------------------------------------------------------4----------------
-------------------------------------------------.-.--------------------------
-2-2-2--2-2-2--2-2-2--2-2-2--2-2-2--2-2--2--2-2--2-2--2-2-2-----2-2-2--2-2-2-2

 s s e  s s e  s s e  s s s s  s s e  s s e  s s s s  s s e  s s e  s s  e e
------------------------------------------------------------------------------
------------------------------------------------------------------------------
--------------------------------------------------------------------------.-.-
-2-2-2--2-2-2--2-2-2--2-2-2-2--2-2-2--2--2-2--2-2-2-2--2-2-2--2-2-2--2-2--2-2-

  q  e  s s e  s s s s  s s e  s s e  s s e  s s  e e  q  e  s s e  s s e
------------------------------------------------------------------------------
------------------------------------------------------------------------------
-->-->---------------------------------------------.-.-->-->------------------
--5--0--0-0-0--0-0-0-0--0-0-0--0-0-0--0--0-0--0-0--0-0--5--2--2-2-2--2-2-2----

 s s e  s s e  s s  e e  s s e     q  q+  e  s s e   q  q+  e  s s e  q  q+
-------------------------------||---------------------------------------------
-------------------------------||.----4------------------6----------------7---
--------------------.-.--------||.--------------------------------------------
-2-2-2--2-2-2--2-2--2-2--2-2-2-||--2-------2--2-2-2---4------4--4-4-4--5------

 e  s s e  q  q    e  e   s s e      q q+  e  s s e   q q  e e  e s s   s s e+
------------------.--.-----------||------------------------------9------------
-------------9---11-11--11-9-7--.||----44---------------------9----9-7\-------
--------------------------------.||----------------------7--7------------5-5-5
-5--5-5-5--7---------------------||--2------2--2-2-2---0----------------------

 s s s e+ s s s e+ s s s e    q q+  e  s s e   q q  e  e   e  e    s s e+ s s
-----------------------------------------------------------14-----------------
--------------------------------4--------------------9-11-----14\-------------
-5-5-5-5--5-5-5-5--5-7-7-7\-----------------------7-----------------5-5-5--5-5
------------------------------2-----2--22-2-2---0-----------------------------
                                  

 s e+ s s s e+ s s s e    e  s s e  s s e  s s e  s s e  s s  e e  q q  e  s
------------------------------------------------------------------------------
------------------------------------------------------------------------------
-5-5--5-5-5-5--5-9-7-7\----------------------------------------.-.-->->-------
--------------------------2--2-2-2--2-2--2--2-2-2--2-2-2--2-2--2-2--5-0--2--2-
                          Guitar Solo

 s e  s s e  s s e  s s e  s s  e e  q q  e  s s e  s s e  s s e  s s e  s s
------------------------------------------------------------------------------
------------------------------------------------------------------------------
--------------------------------.-.-->->>-------------------------------------
-2-2--2-2-2--2-2-2--2-2-2--2-2--2-2--5-00--0--0-0-0--0-0-0--0-0-0--0-0-0--0-0-

 e e  q q  e  s s e  s s e  s s e  s s e  s s  e e  s s e     q  q+  e  s s e
-----------------------------------------------------------||-----------------
-----------------------------------------------------------||.----4-----------
-.-.-->->---------------------------------------.-.--------||.----------------
-0-0--5-0--2--2-2-2--2-2-2--2-2-2--2-2-22--2-2--2-2--2-2-2-||--2------2--2-2-2

 q q+  e  s s e  q  q+  e  s s e  q  q    e  e   s s e         q q+  e  s s e
-------------------------------------------.--.-----------||------------------
---6----------------7----------------9----11-11--11-9-7--.||.-----4-----------
---------------------------------------------------------.||.-----------------
-4-----4--4-4-4--5------5--5-5-5--7-----------------------||----2-----2--2-2-2
                                                  end solo
 
 
                                                        ---------------------
                                                        1.
 q q  e e  e s s   s s e+  s s s e+ s s s e+ s s s e    q q+  e  s s e   q q
-----------9------------------------------------------------------------------
--------9----9-7\------------------------------------------4------------------
---7--7------------5-5-5---5-5-5-5--5-5--5-5--5-7-7-7\----------------------7-
-0-------------------------------------------------------2-----2--2-2-2---0---


-----------------------------------------------------   ----------------------
                                                    |  2.
 e  e   e  e    s s e+ s s  s e+ s s s e+ s s s e         q q+  e  s s e  q q
-------14--------------------------------------------||-----------------------
---11-----14\---------------------------------------.||------4----------------
-9--------------5-5-5--5-5--5-5--5-5-5-55--5-7-7-7\-.||----------------------7
-----------------------------------------------------||----2-----2--2-2-2--0--

 e  e   e  e    s s e+ s s  s e+ s s s e+ s s s e    e e+    q q+  e  s s e
-------14---------------------------------------------------------------------
---11-----14\---------------------------------------------------4-------------
-9--------------5-5-5--5-5--5-5--5-5-5-55--5-7-7-7\---9-9\--------------------
--------------------------------------------------------------2-----2--2-2-2--

 q q+  e  s s e  q  q+  e  s s e  q  q    e  q   e                           
                                             .         q q+  e  s s e  q  q+
---------------------------------------------11--11\--------------------------
---6----------------7----------------9----11--------------4----------------6--
------------------------------------------------------------------------------
-4-----4--4-4-4--5------5--5-5-5--7---------------------2-----2--2-2-2--4-----
                                                               
 e  s s e  q  q+  e  s s e  q  q    e  e   s s e   e  s s e  e  s e  s e  e

------------------------------------.--..-------------------------------------
--------------7----------------9---11-111--11-9-7------4-4-4-----4-4--4-4-----
------------------------------------------------------------------------------
-4--4-4-4--5------5--5-5-5--7-----------------------2---------2------------2--

  e  s s e  e  s e  s e  e   e  s s e  e  s e  s e  e   e  s s e  e   s  e
--------------------------------------------------------------------------.---
-----6-6-6-----6-6--6-6---------7-7-7------7-7--7-7---------9-9-9-----11-11---
------------------------------------------------------------------------------
--4---------4------------4---5---------55------------5---7---------7----------

  s  s s e    e  s s e  e  s e  s e  e  e  s s e  e  s e  s e  e   e  s s e
------------------------------------------------------------------------------
-11-11-9-7\------4-4-4-----4-4--4-4---------6-6-6-----6-6--6-6---------7-7-7--
------------------------------------------------------------------------------
--------------2---------2------------2---4---------4------------4---5---------

 e  s s s s s s s s    [w w w]   q     s  s  s  s  s s  e   s s  e  s s  e
------------------------------------------------------------------------------
----7-7-7-7-7-7-6-4\----------------------------------------------------------
--------------------------------------111-11-11-11-11-9-----11-9----11-9------
-5----------------------2--------2----------------------11-------11------11---
                                       out of time


 s s s s q  s s s s s s s s s s s s s s s s s s s s s s s h   q  q  e
----------------------------------------------------------------------------||
---------------------------------------------------------------5--2--4\-----||
----------------------------------------------------------------------------||
-9-7-5-4-2--2-2-2-2-2-2-2-2-2-2-2-2-2-2--2-2-2-2-2-2-2-2-2-2----------------||
Copyright G. Crisan ( crisan@shadow.net )
Tab from Maiden World - (http://www.maiden-world.com/)
Click here for printable version



You are here: Home > Tabs > Iron Maiden - Flight Of Icarus Bass Tab


All content, images and other resources are the property of their respective copyright holders
Specific website content & style is copyright © 2003-2018 maiden-world.com, All Rights Reserved
Admin E-mail: admin AT maiden-world DOT com , Site Design by Jon Simpson