www.maiden-world.com
Site
Home
Forum
Wiki
DC Hub
Donate
Links
Contact
About

Content
Albums
Articles
Bootleg DB
Concerts/Gigs
Collectables
Merchandise
Lyrics
Tabs
Tribute Albums
Videos
Ed Hunter
Concert Tickets

Downloads
Mobile
Wallpaper
Bootleg Manager
Other Downloads

Maiden World - Iron Maiden news, discussion, information and articles
Iron Maiden - No Prayer For The Dying Bass Tab

You are here: Home > Iron Maiden Tabs > Iron Maiden - No Prayer For The Dying Bass Tab

Information

About this tab
Song: Iron Maiden - No Prayer For The Dying
Author: G. Crisan ( crisan@shadow.net )
Type: Bass
Album: No Prayer For The Dying
Track no: 3

Copyright

This tab is the author's own work and represents their interpretation of the song. You may only use this file for private study, scholarship, or research.


Tab

Click here for printable version
Intro
-----9---------12-------7-------5---------9---------12--------7----------5----
---9---9----12---12---7---7---5---5-----9---9----12----12---7---7-----55---5--
-7-------10---------5-------3--------7--------10----------5-------3-3--------3
------------------------------------------------------------------------------

-5---------9-9-----------------12-12-----------------7-7------------5-5-------
-------9-9-----9-9-------12-12-------122-12------7-7-----7-7-----5-5---5-5----
---7-7-------------10-10---------------------5-5-------------3-3--------------
------------------------------------------------------------------------------

--------9-9-----------------12-12----------------7-7------------5-5----------|
----9-9-----9-9-------12-12-------12-122-----7-7-----7-7----5-5-----5-5------|
7-7-------------10-10-------------------5-5-------------3-3-----------------|
-----------------------------------------------------------------------------|
                                                               Not a repeat!


-----------7-------------5---7-------9----------7---7---------4-------5-----7-
---------7-------------5----7-------9----------7----7-------4--------5-----7--
-7---5---------2---3-------5-------7--------5-------5----2--------3-------5---
------------------------------------------------------------------------------
"(There are) 
times when I've wondered.."


-------9------7----7--------4------5-----7---------9------7----7--------4-----
----9--------7----7------4--------5-----7-------9--------7----7------4--------
-7--------5------5----2-------3-------55-----7-------5-------5----2-----------
------------------------------------------------------------------------------

------5----7------------------------------------------------------------------
-----5----7-------------------------------------------------------------------
-3-------5------7-7-7-7-7---5--5-5--5-55-5-----2-2-2-2-2---3--3-3--5-5-5------
------------------------------------------------------------------------------

------------------------------------------------------------------------------
------------------------------------------------------------------------------
-7-7-7-7-7---5--5-5--5-5-5-----2-2-2-2--2---3--3-3--5-5-5-----7-7-7-7-7---5---
------------------------------------------------------------------------------

------------------------------------------------------------------------------
------------------------------------------------------------------------------
-5-5--5-5-5-----2-2-2-2-2--3--3-3--5-5--5-----7-7-7-7-7---5--5-5--5-5-5-------
------------------------------------------------------------------------------

------------------------9---------7---77------4----------5------7---------9---
---------------------------9-----7------7--------4------5--------7-----9------
-2---2---2---3---5---7--------5------5-----2---------3-------5------7---------
------------------------------------------------------------------------------

-----7---7---------4------5----7---------9--------7---7-------4-------5---7---
----7-----7-----4----------5----7---------9------7-----7-------4----5------7--
-5------5----2--------3-------5------7-------5-------5-----2------3-----5-----
------------------------------------------------------------------------------
                                 
----9-----------7----7----------4-------5----7--------------------------------
-------9-----7---------7-----4--------55----7---------------------------------
-7--------5---------5-----2--------3-------5------7-7-7-7-7---5--5-5--5-5-5---
------------------------------------------------------------------------------

------------------------------------------------------------------------------
------------------------------------------------------------------------------
-2-2-2-2-2---3--3-3--5-5-5----7-7-7-7-77---5--5-5--5-5-5---2-2-2-2-2---3--3-3-
------------------------------------------------------------------------------

------------------------------------------------------------------------------
------------------------------------------------------------------------------
-5-5-5----7-7-7-7-7---5--5-5--5-5-5---22-2-2-2-2---3--3-3--5-5-5----7-7-7-7-7-
------------------------------------------------------------------------------

--------------------------------------------9---------12---------7--------5---
------------------------------------------9---9----12----12----7---7----5-----
-5--5-5--5-5-5----2---2---2---3---5-----7-------10----------5---------3-------
------------------------------------------------------------------------------

-----9---------12---------7----------5----5-------------9-9-----------------12
---9---9----12----12----7---7------5--------5-------9-9-----9-9-------12-12---
-7-------10-----------5--------3-3------3-------7-7-------------10-10---------
------------------------------------------------------------------------------

-12----------------7-7-----------5-------5-----------9-9-----------------12-12
----12-12------7-7-----7-7-----5--------5--------9-9-----9-9-------12-12------
-----------5-5-------------3-3------3--------7-7-------------10-10------------
------------------------------------------------------------------------------

----------------7-7------------5---5--------------9-9-----------------12-12---
-12-12------7-7-----7-7------5---5--5---------9-9-----9-9-------12-12-------12
--------5-5--------------3-3----------33--7-7-------------10-10---------------
------------------------------------------------------------------------------

------------7-7-----------5-5-------------------------------------------------
-12-----7-7-----7-7-----------5-----------------------------------------------
----5-5-------------3-3-3--------5h7--77-7--7-7--7-7-7-7-7-7--5h7--7-7--7-7---
------------------------------------------------------------------------------
                                 (h = hammer on)


------------------------------------------------------------------------------
------------------------------------------------------------------------------
-7-7-7-7-7-7---3-3-3--3-3--3-3---5--5-55--5-5--5h7--7-7--7-7--7-7-7-7-7-7--5~7
------------------------------------------------------------------------------

------------------------------------------------------------|
--------------------------------5--5-4----4-4-4--7--7-5p4---|
-7-7--7-7--7-7-7-7-7-7---3-3-3------------------------------|
------------------------------------------------------------|  This is NOT
                                         (p = Pull off)       a repeat!

|----------------------------------------------------------------------------
|.----7--9-----7--9-----7--9---7--9---7--10------7--9-----7--9-----7--9---7--
|.-7--------7--------7------------------------7--------7--------7------------
|----------------------------------------------------------------------------
Solo part.


------------------------------------------------------------------------------
-9--7-10-----2--4-----2--4-----2--4---22--4---2--5-----3--5------3--5------5--
---------2--------2--------2-----------------------3---------3---------5------
------------------------------------------------------------------------------

----------------|-------------------------------------------------------------
-7------5--7---.|.--------------------------------------------------------4---
-----5---------.|.--9-9-9--7--9---9---99-9-9--7--9---9---9-9-9--7--9----------
----------------|-------------------------------------------------------------
Play 4 times.


------------------------------------------------------------------------------
-5-4-2--0-2-4------------------------------------------------------4--5-4-2---
---------------9--9-9--7--9---9---9-9-99--7--9---9---9-9-9--7--9--------------
------------------------------------------------------------------------------

----------------|-------------------------------------------------------------
-0-2-4--5-4-2--.|-------------------------------------------------------------
---------------.|-9--9-9--9-9------7--77-7--7-7------2--2-2--2-2-----3---3----
----------------|-------------------------------------------------------------
                  " God give me the answer to my life...", et cetera


------------------------------------------------------------------------------
------------------------------------------------------------------------------
-5---5---9--9-9--9-9------7--7-7--7-7-------2--2-2--2-2--2----3---3----5---5--
------------------------------------------------------------------------------

------------------------------------------------------------------------------
------------------------------------------------------------------------------
-9--9-9--9-9----7--7-7--7-7-----2--2-2---2-2----3---3----5---5----9--9-9--9-9-
------------------------------------------------------------------------------

------------------------------------------------------------9-----------12----
----------------------------------------------------------9---9-----12-----12-
---7--7-7--7-7-----2--2-2--2-2----3---33----5---5------7---------10-----------
------------------------------------------------------------------------------

-----7--------5--------9----------12----------7----------5-----------------9-9
---7---7----5--------9---9-----12----122----7---7------5---5---5-------9-9----
-5--------3------7----------10-----------5---------3-3-------3-----7-7--------
------------------------------------------------------------------------------

-----------------12-12---------------7--7-------------5-5--------------9-9----
-9-9-------12-12-------12-12-----7-7------7-7-----5-5-------5-------9-9----9-9
-----10-10-------------------5-5--------------3-3---------3-----7-7-----------
------------------------------------------------------------------------------

-------------12-12---------------7-7----------------5---5-------------------||
-------12-12-------12-12-----7-7-----7--7------5-5---------5-----5----------||
-10-10-------------------5-5---------------3-3-------------------------7----||
----------------------------------------------------------------------------||
                           ritard.
Copyright G. Crisan ( crisan@shadow.net )
Tab from Maiden World - (http://www.maiden-world.com/)
Click here for printable version



You are here: Home > Tabs > Iron Maiden - No Prayer For The Dying Bass Tab


All content, images and other resources are the property of their respective copyright holders
Specific website content & style is copyright © 2003-2018 maiden-world.com, All Rights Reserved
Admin E-mail: admin AT maiden-world DOT com , Site Design by Jon Simpson