www.maiden-world.com
Site
Home
Forum
Wiki
DC Hub
Donate
Links
Contact
About

Content
Albums
Articles
Bootleg DB
Concerts/Gigs
Collectables
Merchandise
Lyrics
Tabs
Tribute Albums
Videos
Ed Hunter
Concert Tickets

Downloads
Mobile
Wallpaper
Bootleg Manager
Other Downloads

Maiden World - Iron Maiden news, discussion, information and articles
Iron Maiden - Strange World Bass Tab

You are here: Home > Iron Maiden Tabs > Iron Maiden - Strange World Bass Tab

Information

About this tab
Song: Iron Maiden - Strange World
Author: ?
Type: Bass
Album: Iron Maiden
Track no: 6

Author Comments

Unknown Author

Copyright

This tab is the author's own work and represents their interpretation of the song. You may only use this file for private study, scholarship, or research.


Tab

Click here for printable version
Intro
G-------------------------|--------------------|------------------------
D---3:--------------------|--------------------|------------------------
A---4:--------------------|--7-----------------|------------------------
E-------0-----------------|--------7-----5-----|--0---------------------

G--|----------------------|--------------------|---------------------
D--|----------------------|--------------------|---------------------
A--|--5h7-----------------|--------------------|---------------------
E--|----------------------|--5h7---------------|--3h5-----3-----2----

G----|--------------------|--------------------|--------------------
D----|--------------------|--------------------|--------------------
A----|--------------------|--5h7---------------|--------------------
E----|--0-----------------|--------------------|--5h7---------------


G-------------------------|--------------------|------------------
D-------------------------|--------------------|------------------
A-------------------------|--------------------|--7---------------
E---3h5-----2h3-----2-----|--0-----------------|------------------


G----|--------------------|--------------------|-------------------
D----|--------------------|--------------------|-------------------
A----|--------------------|--------------------|--------------7--8-
E----|--0-----------0-----|--4-----5-----7-----|--8--------8-------


G---|---------------------|-----------------------|------------------
D---|---------------------|-----------------------|------------------
A---|--10--------8--7-----|----------------9--10--|--12--------9-----
E---|------------------8--|--10--------10---------|------------------


G--------------|------------------------|------------------------|------
D--------------|------------------------|----------------14--14--|------
A---h10p9------|----------------11--12--|--14--------14----------|------
E----------10--|--12--------12----------|------------------------|------


G---------------------------|--------------------------|----------------
D---14--14--14--12----------|--12----------------------|----------------
A-------------------14--12--|------14--12--------------|----------------
E---------------------------|--------------15--14--12--|--8--------8----


G---------|---------------------|-----------------------|---------------
D---------|---------------------|-----------------------|---------------
A---7--8--|--10--------8--7-----|----------------9--10--|--12-----------
E---------|------------------8--|--10--------10---------|---------------


G--------------|------------------------|-----------------------|-------
D--------------|------------------------|----------------12h14--|-------
A---10--9------|----------------11--12--|--14--------11---------|-------
E----------10--|--12--------12----------|-----------------------|-------


G---12h14--12--11--12--11--|--12--11------------------||----------------
D--------------------------|----------12--11----------||*---------------
A--------------------------|------------------12--10--||*---------------
E--------------------------|--------------------------||---8------------


G------------|---------------------|-----------------------|------------
D------------|---------------------|-----------------------|------------
A------7--8--|--10--------8--7-----|----------------9--10--|--12--------
E---8--------|------------------8--|--10--------10---------|------------


G-----------------|------------------------|----------------------------
D-----------------|------------------------|----------------14--14------
A------10--9------|----------------11--12--|--14--------14--------------
E-------------10--|--12--------12----------|----------------------------


G---|--------------------------|--------------------------|-------------
D---|--14--14--14--12----------|--12----------------------|-------------
A---|------------------14--12--|------14--12--------------|-------------
E---|--------------------------|--------------15--14--12--|--8----------


G------------|-----------------------|-----------------------|----------
D------------|------------10---------|-----------------------|----------
A------7--8--|--10------------10--8--|----------------9--10--|--12------
E---8--------|-----------------------|--10--------10---------|----------


G---------------------|------------------------|------------------------
D---------12----------|------------------------|----------------14------
A-------------12--10--|------------------------|------------14----------
E---------------------|--12--------12--12--12--|--12--------------------


G-------|------------------------|------------------|-------------------
D-------|------------------------|------------------|-------------------
A---14--|------------------------|------------------|-------------------
E-------|--12--------12--12--12--|--12-----7-----5--|-------------------


The only place...                                                   
G---------------------|--------------------|--------------------|-------
D------------------0--|--2--------2--0-----|--------------------|-------
A---------------2-----|-----------------2--|--------------------|-------
E---0--------0--------|--------------------|--3--------3--3-----|--3----

G------------------|--------------------|----------------------|--------
D------------------|--0--------0--0--0--|--0-----3h5-----0-----|--------
A------------2--3--|--------------------|----------------------|--3-----
E---------3--------|--------------------|----------------------|--------


G------------------|--------------------|--------------------|----------
D------------------|--------------------|-----------------0--|--2-------
A---------3--3-----|--3-----2--0--2-----|--------------2-----|----------
E------------------|-----------------3--|--0--------0--------|----------


G---------------|--------------------|----------------------|-----------
D------2--0-----|--------------------|--3h5--------3--2-----|--0--------
A------------2--|--------------------|-------------------3--|-----------
E---------------|--3--------3--3-----|----------------------|-----------

G---------------|----------------------|--------------------|-----------
D------0--0-----|--3h5--------3--2-----|--------------------|-----------
A---------------|-------------------3--|--3--------3--3-----|--3--------
E---------------|----------------------|--------------------|-----------

G-----------------|--------------------|--0h2--0--------------|---------
D---2-----3h5-----|-----------------2--|----------2--0--------|---------
A-----------------|--------------2-----|----------------3--2--|---------
E-----------------|--0--------0--------|----------------------|--3------

G------------------|--------------------|-----------------------|-------
D------------------|--------------------|--0--------0--0--0-----|--0----
A------------------|--------------2--3--|-----------------------|-------
E---------3--3-----|--3--------3--------|-----------------------|-------

G--------------------|--------------------|--------------------|--------
D------3h5-----0-----|--------------------|--------------------|--------
A--------------------|--3--------3--3-----|--3-----2--0--2-----|--------
E--------------------|--------------------|-----------------3--|--0-----

G------------------|--------------------|--------------------|----------
D---------------0--|--2--------2--0-----|--------------------|--3h5-----
A------------2-----|-----------------2--|--------------------|----------
E---------0--------|--------------------|--3--------3--3-----|----------

G------------------|--------------------|----------------------|--------
D---------3--2-----|--0--------0--0-----|--3h5--------3--2-----|--------
A---------------3--|--------------------|-------------------3--|--3-----
E------------------|--------------------|----------------------|--------


G------------------|--------------------|--------------------|----------
D------------------|--------------------|--------------------|----------
A---------3--3-----|--3-----2--0--2-----|--------------------|----------
E------------------|-----------------3--|--0-----------------|----------

(end of voice)                                                      
G------------------------|-----------------------|----------------------
D------------------------|-----------------------|----------------------
A------------------------|-----------------------|--7-------------------
E------------------------|--0--------------------|--------7-----5-------

G---|--------------------|-------------------|--------------------------
D---|--------------------|-------------------|--------------------------
A---|--------------------|--5h7--------------|--------------------------
E---|--0-----------------|-------------------|-----5h7------------------


G---|------------------------|------------------------||----------------
D---|------------------------|-----------------------*||----------------
A---|------------------------|-----------------------*||--5h7-----------
E---|--3h5-----2h3-----2-----|--0---------------------||----------------


G------------|-------------------|-----------------------|--------------
D------------|-------------------|-----------------------|--------------
A------------|-------------------|-----------------------|--------------
E------------|--5h7--------------|--3h5-----2h3-----0h2--|--0-----------


G------------------|--------------------------|-----------------|-------
D------------------|--------------------------|-----------------|--9----
A------------------|--7-----------------------|--------------7--|-------
E------------------|--------------------------|--0--------------|-------


G--------------------|--------------------|-----------------------|-----
D---7----------------|--------------------|------------10---------|-----
A------10--9--7--10--|--------------7-----|--7--8--10------10--8--|-----
E--------------------|--8--------8-----8--|-----------------------|-----

G------------------------|-------------------------|--------------------
D------------------------|-------------12----------|--------------------
A-----------------9------|--9--10--12------12--10--|--------------------
E---10--------10-----10--|-------------------------|--12--------12------


G-----------|------------------------|--------------------------|-------
D-----------|----------------14--14--|--14--14--14--12----------|-------
A---11--12--|--14--------14----------|------------------14--12--|-------
E-----------|------------------------|--------------------------|-------


G---------------------------|--------------------|----------------------
D---12----------------------|--------------------|----------------------
A-------14--12--------------|--------------7-----|---------7--8--10-----
E---------------15--14--12--|--8--------8-----8--|--10------------------


G-------|--------------------------|------------------------|-----------
D---10--|--------------------------|--------------------12--|-----------
A-------|-------------------9------|---------9--10--12------|-----------
E-------|--10-----------10-----10--|--12--------------------|--12-------


G------------------|-----------------------|--12h14--12--11--12--11-----
D------------------|----------------12h14--|----------------------------
A----------11--12--|--14--------14---------|----------------------------
E------12----------|-----------------------|----------------------------


G---|--12--11------------------|
D---|----------12--11----------|
A---|------------------12--10--|
E---|--------------------------|

(repeat the part between the 2 points)                              
G-----------------------------------------------------------------------
D-----------------------------------------------------------------------
A-----------------------------------------------------------------------
E-----------------------------------------------------------------------

G---|-------------------|-----------------|--------------7-----|----
D---|-------------------|-----------------|--9-----7-----------|----
A---|--7----------------|-----------------|--------------------|----
E---|-------------------|--0--------------|--------------------|----

G---7h9-----------------|-----------------||
D-----------------------|-----------------||
A-----------------------|-----------------||
E-----------------------|--0--------------||
Copyright ?
Tab from Maiden World - (http://www.maiden-world.com/)
Click here for printable version



You are here: Home > Tabs > Iron Maiden - Strange World Bass Tab


All content, images and other resources are the property of their respective copyright holders
Specific website content & style is copyright © 2003-2018 maiden-world.com, All Rights Reserved
Admin E-mail: admin AT maiden-world DOT com , Site Design by Jon Simpson