www.maiden-world.com
Site
Home
Forum
Wiki
DC Hub
Donate
Links
Contact
About

Content
Albums
Articles
Bootleg DB
Concerts/Gigs
Collectables
Merchandise
Lyrics
Tabs
Tribute Albums
Videos
Ed Hunter
Concert Tickets

Downloads
Mobile
Wallpaper
Bootleg Manager
Other Downloads

Maiden World - Iron Maiden news, discussion, information and articles
Iron Maiden - Revelations Bass Tab

You are here: Home > Iron Maiden Tabs > Iron Maiden - Revelations Bass Tab

Information

About this tab
Song: Iron Maiden - Revelations
Author: G. Crisan ( crisan@shadow.net )
Type: Bass
Album: Piece Of Mind
Track no: 2

Author Comments

Copyright

This tab is the author's own work and represents their interpretation of the song. You may only use this file for private study, scholarship, or research.


Tab

Click here for printable version
Intro
------------------------------------------------------------------------------
---------55-7-5-2--------------555-7-5--2--------------55-7-5-2---------------
-------------------3-5---------------------3-5-------------------3-5----------
-3-5-3-5----------------3-5-3-5-----------------3-5-3-5---------------3-5-3-5-

------------------------------------------------------------------------------
-555-7-5-2--------------------------------------------------------------------
-----------3--5----------------------------------------------------------3----
------------------5-5--1-1--3-3--5-5-5--3---5-5--1-1--3-3--5-5-5-3---5-5---1-1
                                                              Lyrics enter 

------------------------------------------------------------------------------
------------------------------------------------------------------------------
3------3---------------3-----3------3----------------3------3-----3----------
---3-3---5-5-5-3---5-5---1-1----3-3-----5-5-5-3---5-5----1-1---3-3----5-5-5-3-

------------------------------------------------------------------------------
------------------------------------------------------.-----------------------
-----3------3-----3------------0--3-5-88---7-8-7-3--3h5-3-2------0--0-3-5-8-8-
-5-5----1-1---3-3----5-5-5-3--------------------------------3-0---------------
                                               ( . = staccatto )
                                               ( h = hammer on )


------------------------------------------------------------------------------
---------------.----------------------------------------.---------------------
-10-12-10--15h17--15-14-10-7---0--0-3-55-8-7h8-7-3--5h3-2-------0--3-5-8-8-10-
-----------------------------------------------------------3-0----------------

------------------------------------------------------------------------------
------------------------------------------------------------------------------
-12-10--15-17-15-14\-------.------.------5-----------.-------.-----5----------
-----------------------5h3-5--5h3-5---33----1-3--5h3-5---5h3-5---3----1-3-----
             ( \ = slide down )            


------------------------------------------------------------------------------
------------------------------------------------------------------------------
-----------------------------------------5------------------------------------
-5-3-5--5--5---5-3-5-5-5-5-5--5-5-3-3-33---1--3--5-3-5-5-5-5-5--5-3-5-5-5-5-5-
                                          
------------------------------------------------------------------------------
------------------------------------------------------------------------------
-------5------------------------------------------5---------------------------
-5-5-3----1---3--5-3-5-5-5-5-5--5-3-5-55-5-5-5--3---1--3--5-3-5-5-5-5-5--5-3-5
          
------------------------------------------------------------------------------
------------------------------------------------------------------------------
-----------------5-------0--3-5-8--7-8--7-3--3-5-3-2-----0--3-5-8--8-10-12-10-
-5-5-5-5-5-5--3----1--3------------------------------3-0----------------------
                   
------------------------------------------------------------------------------
-----.----------------------------------------.-------------------------------
-15/17-15--14\10--7---0--3-5-8--7-8-7-33--5h3-2-------0--0-3-5-8--8-10-12-10--
-------------------------------------------------3-0--------------------------

------------------------------------------------------------------------------
-----.------------------------------------------------------------------------
-15h17-15-14-10-7---0--3-5-8--7-8-7-3---3-5-3-2--------0--0-3-5-8--8-10-12-10-
--------------------------------------------------3-0-------------------------

------------------------------------------------------------------------------
------------------------------------------------------------------------------
-15-17-15--14\7-7------------------------3--5--5-3-5-3------------------------
-------------------5--5-5-5-3--5--5-5-55---------------5-3--0-0--3-3--5--5-5-5

------------------------------------------------------------------------------
---------------------------------------------------------------.-.------------
-------------3--5---5-5-3-----------------0--3-5-8--7-8-7-3--5-3-2-------0----
-3--5--5-5-5--------------5-3--0-0--3-33----------------------------3-0-------

------------------------------------------------------------------------------
------------------------------------------------------------------------------
-0-3-5-8--7-8-7-3--3-5-3-2--------0--0--3-5-8--10-12-10--15-17-15-14--10-7--0-
-----------------------------3-0----------------------------------------------

------------------------------------------------------------------------------
-------------------.----------------------------------------------------------
-3-5-8--7-8-7-3--5-3-2---------0--0-3-55-8--8-10-12-10--15--17-15-14\10-7-----
-------------------------3-0------------------------------------------------5-

------------------------------------------------------------------------------
------------------------------------------------------------------------------
-------------------3--5--5-3-5-3--------------------------------------3--5--5-
-5-5-5-3--5--5-5-5---------------5-3--00-0--3-3--5--5-5-5-3--5--5-5-5---------

------------------------------------------------------------------------------
------------------------------------------------------------------------------
-3-5h3------------------------------------------5---------------------------5-
-------5h3--0-0--3-3--5----5-3-5---5-3--5---3------1--3---5-3-5---5-3-5---3---
                                                  
------------------------------------------------------------------------------
------------------------------------------------------------------------------
-----------------------------------------5------------------------------------
-1-3--5-3-5--5--5--5-3-5-5-5-5-5--5-5-33---1-3--5-3-5-5-5-5-5--5-3-5-5-5-5-5--
                                      
------------------------------------------------------------------------------
-------------------------------5-3--------------------------------.-----------
--------5-----------5-5-5-5-5------5-5--5-5-5--0-0-0-0-0-0--5-5-5-3--2-2--0-0-
-5-5--3---1--3--5-3-----------------------------------------------------------

------------------------------------------------------------------------------
--------------------5-3-------------------------.-----------------------------
-0-0--5-3-5-0-0-0-0-----5-0-0-0-0-0-0-00--5-5-5-3--2-2--0-0-0--5-3-5--0-0-0-0-
------------------------------------------------------------------------------
                                
------------------------------------------------------------------------------
-5-3------------------------.-----------------------------5-3-----------------
-----5-0-0-0-0-0-0-0--5-5-5-3--2-2--0-00-0--5-3-5-0-0-0-0-----5-0-0-0-0-0-0-0-
------------------------------------------------------------------------------

------------------------------------------------------------------------------
-------.----------------------------5-33-------------------------.------------
-5-5-5-3--2-2--0-0-0--5-3-5-0-0-0-0-------5-0-0-0-0-0-0-0--5-5-5-3--2-2--0-0-0
------------------------------------------------------------------------------

------------------------------------------------------------------------------
---------------5-3-------------------------.----------------------------5-3---
-5-3-5-0-0-0-0-----5-0-0-0-0-0-0-0--5-55-5-3--2-2--0-0-0--5-3-5-0-0-0-0-----5-
------------------------------------------------------------------------------

------------------------------------------------------------------------------
-----------------------.-----------------------------5-3----------------------
-0-0-0-0-0-0-0---5-5-5-3--2-2--0-0-0--55-3-5-0-0-0-0-----5-0-0-0-0-0-0-0-5-5-5
------------------------------------------------------------------------------

------------------------------------------------------------------------------
-.----------------------------------------------------------------------------
-3--2-2--0-0-0--0-0-7-5-7-0-0-0-3-5-3-55-0-0-0-2-3-2-3-0-0-0-3-2-0-0-0-5-7-5-7
------------------------------------------------------------------------------

------------------------------------------------------------------------------
---------------------3-5-7-5-7-----5-3--0-------------------------------------
-0-0-0-3-5-3-5-0-0-0-----------0-0--------0--0-0-0-0-5-7-5-7-0-0-0-3-5-3-5-0-0
------------------------------------------------------------------------------

------------------------------------------------------------------------------
------------------------------------------------3-3-3-5-5-5-5-7-5-3-----------
-0-0-5-3-0--0-0-0-0-3-5-3-5-0-0-0-5-7-55-7-0--0---------------------0---------
-----------------------------------------------------------------------5-3-5--

------------------------------------------------------------------------------
------------------------------------------------------------------------------
-----------------------------5---------------------------------------------5--
-5-5-5-5--5-3-5-5-5-5-5-5--3---1-3--5-33-5-5-5-5-5--5-3-5-5-5-5-5-5-5-5--3---1
                                                                         
------------------------------------------------------------------------------
------------------------------------------------------------------------------
-----------------------------------------5------------------------------------
-3--5-3-5-5-5-5-5--5-3-5-5-5-5-5-5-5--33---1-3--5-3-5-5-5-5-5--5-3-5-5-5-5-5-5
                                        
------------------------------------------------------------------------------
------------------------------------------------------------------------------
---------5--------------------------------------------------------------------
-5-5--3-----1---3---5-5---1-1---3-3---55-5-5-3---5-5---1-1---3-3----5-5-5-3---
            
------------------------------------------------------------------------------
------------------------------------------------------------------------------
------3------3------3-----------------33--------3-------5---------------3-----
-5-5-----1-1----3-3------5-5-5-3--5-5------1-1------3-3----5-5-5-3--5-5----1-1

------------------------------------------------------------------------------
------------------------------------------------------------------------------
-3------3---------------3-------3-------3----0--3-5-8--7-8-7-3---3-5-3-2-0----
----3-3----5-5-5-3--5-5----1-1-----3-3--------------------------------------0-

---------------------------------------------------2------------||
----------------------------------------------------------------||
-0--0-3-5-8---8-10-12-10---15-17-15-14\\10-7---0--------0-------||
------------------------------------------------------0---------||
                          Ritard.               
Copyright G. Crisan ( crisan@shadow.net )
Tab from Maiden World - (http://www.maiden-world.com/)
Click here for printable version



You are here: Home > Tabs > Iron Maiden - Revelations Bass Tab


All content, images and other resources are the property of their respective copyright holders
Specific website content & style is copyright © 2003-2018 maiden-world.com, All Rights Reserved
Admin E-mail: admin AT maiden-world DOT com , Site Design by Jon Simpson