www.maiden-world.com
Site
Home
Forum
Wiki
DC Hub
Donate
Links
Contact
About

Content
Albums
Articles
Bootleg DB
Concerts/Gigs
Collectables
Merchandise
Lyrics
Tabs
Tribute Albums
Videos
Ed Hunter
Concert Tickets

Downloads
Mobile
Wallpaper
Bootleg Manager
Other Downloads

Maiden World - Iron Maiden news, discussion, information and articles
Iron Maiden - The Trooper Bass Tab

You are here: Home > Iron Maiden Tabs > Iron Maiden - The Trooper Bass Tab

Information

About this tab
Song: Iron Maiden - The Trooper
Author: onearmedbandit (onearmedbandit_86@yahoo.co.uk)
Type: Bass
Album: Piece Of Mind
Track no: 5

Author Comments

~=slide or hammer on/off #= mute/damp (achieved by pressing the fret half-down or putting another finger slightly on the next fret) |(notes)| = tuplet ! = accented (play harder on that note) {}= harmonics

Copyright

This tab is the author's own work and represents their interpretation of the song. You may only use this file for private study, scholarship, or research.


Tab

Click here for printable version
Intro:
G: -----------------------------------------------------------------------------------
D: -2-------0--0-0-0-2-------0--0-0-0-2----------0-0-0-2--2-2-0---0-0-0---------------
A: -------------------------------------------------------------2-------3-0--3-3-3-0--
E: ----------------------------------------------------------------------------------3

-----------------
-0-0-0-2--------- <-- The galloping starts here!
-----------------
-----------------

Galloping bit!! (used through every verse and the FIRST riff thing after the intro)
G: ----------------------------------------------------------------------------------
D: -2--2-2-2--2-2-2--2-2-2--2-2-2--2-2-2---0-4-0-2--2-2-2--2-2-2--2-2-2--2-2-2--2-2-2
A: --------------------------------------0-------------------------------------------
E: ----------------------------------------------------------------------------------

------------------------------------------------------------------------------------------
---0-4-0----------------------------------------0-4-0-2--2-2-2--2-2-2--2-2-2--2-2-2--2-2-2
-0-------3--3-3-3--3-3-3--3-3-3--3-3-3--3-3-3-0------------------------------------------- ETC.
------------------------------------------------------------------------------------------
Note: The second and third times when the riff occurs is doesn't go from C to E, instead it goes from
C to D and THEN to E. Gettit? Oh well..... you know what to do if you don't ;)


Chorus:
G: ---------------------------------------------------------------------------------------------------
D: -0--0-0-0--0-0-0--0-0-0--0-0-0--0-0-0--0-0-0-4-0-2--2-2-2--2-2-2--2-2-2--2-2-2--2-2-2--2-2-2--2-2-2
A: ---------------------------------------------------------------------------------------------------
E: ---------------------------------------------------------------------------------------------------

Lead solo (Adrian):
G: -----------------------------------------------------------------------------------------5-------7--
D: ---------------------------------------------------------------------------------------5---5---7---7
A: -7--7-7-7--7-7-7--7-7-7--7-7-6--6-6-6--6-6-6--6-6-6--6-6-2--2-2-2--2-2-2--2-2-2--2-2-3-------5------ ETC.
E: ----------------------------------------------------------------------------------------------------

Lead solo (Davey):
G: ---------------------------------------------------------------------------------------5-------7------
D: -7--7-7-7--7-7-7--7-7-7--7-7-6--6-6-6--6-6-6--6-6-6--6-6-2--2-2-2--2-2-2--2-2-2--2-2-3-----3~5-----5~7 ETC.
A: -----------------------------------------------------------------------------------------3-------5----
E: ------------------------------------------------------------------------------------------------------
The outro is the same as the intro.

Copyright onearmedbandit (onearmedbandit_86@yahoo.co.uk)
Tab from Maiden World - (http://www.maiden-world.com/)
Click here for printable version



You are here: Home > Tabs > Iron Maiden - The Trooper Bass Tab


All content, images and other resources are the property of their respective copyright holders
Specific website content & style is copyright © 2003-2018 maiden-world.com, All Rights Reserved
Admin E-mail: admin AT maiden-world DOT com , Site Design by Jon Simpson