www.maiden-world.com
Site
Home
Forum
Wiki
DC Hub
Donate
Links
Contact
About

Content
Albums
Articles
Bootleg DB
Concerts/Gigs
Collectables
Merchandise
Lyrics
Tabs
Tribute Albums
Videos
Ed Hunter
Concert Tickets

Downloads
Mobile
Wallpaper
Bootleg Manager
Other Downloads

Maiden World - Iron Maiden news, discussion, information and articles
Iron Maiden - Sun And Steel Bass Tab

You are here: Home > Iron Maiden Tabs > Iron Maiden - Sun And Steel Bass Tab

Information

About this tab
Song: Iron Maiden - Sun And Steel
Author: Marcelo Danemberg Marsili (alumar@uninet.com.br)
Type: Bass
Album: Piece Of Mind
Track no: 8

Author Comments

This song is about Miyamoto Musashi, a legendary Japanese Swordsman.Iron Maiden have never played this song live.

Copyright

This tab is the author's own work and represents their interpretation of the song. You may only use this file for private study, scholarship, or research.


Tab

Click here for printable version
|---------------------------------------------------------------------------------
|---7---------7-----7-----------------------7---------------------7---------------
|-9---9-7---9---9-7---9-999-999-999-999-999---9-999-999-999-999-7---9-999-999-999-
|---------------------------------------------------------------------------------
                                      Verse
-----------------------------------------------------------------------------------
--------7-------------------------7------------------------------------------------
999-999---9-999-999-999-999-999-9---9-7-777-777-777-777-777-777-777-777-777-777-77
-----------------------------------------------------------------------------------

-----------------------------------------------------------------------------------
------------7-----7------------------------7-------------------------7-------------
7-777-777-9---9-7---9-999-999-999-999-999---9-999-999-999-999-999-9---9-7-777-777-
-----------------------------------------------------------------------------------

-----------------------------------------------------------------------------------
-----------------------------------------------7-----7-----------------------7-----
777-777-777-777-777-777-777-777-777-777-777-9---9-7---9-999-999-999-999-999---9-99
-----------------------------------------------------------------------------------
                    Chorus
------------------|----------------------------------------------------------------
------------------|----------------------------------------------------------------
9-999-999-999-999-|---------------------------------------------------------------
------------------|-5-555-555-555-555-5555-555-555-3-333-333-333-333-333-333-333-33

---------------------------7-5------------------------5555-7-5-4-------------------
---------------------5h7p5-----7-5-------------------------------5-----------------
-5-555-555-555-555-5---------------3-3--3-3-3-3-3-3-3------------------------------
-------------------------------------------------------------------5-555-555-555-55

-----------------------------------------------------------------------------------
-----------------------------------------------------------------5-5-5-7-5---------
---------------------------------------------5-5-5-5-5-5-5-5-5-5-----------7-5-3-3-
5-555-555-555-3-3-3-3-3-3-3-3-3-3-3-3-3-3-3---------------------------------------

------------5555-7-5-5-7-|---------------------------------------------------------
-------------------------|-7------------------------7-------------------------7----
3-3-3-3-3-3--------------|---9-999-999-999-999-999---9-999-999-999-999-999-9---9-7
-------------------------|---------------------------------------------------------
 Verse
-----------------------------------------------------------------------------------
-------------------------------------------------------7-----7---------------------
777-777-777-777-777-777-777-777-777-777-777-777-777-9---9-7---9-999-999-999-999-99
-----------------------------------------------------------------------------------

-----------------------------------------------------------------------------------
--7-------------------------7------------------------------------------------------
9---9-999-999-999-999-999-9---9-7-777-777-777-777-777-777-777-777-777-777-777-777-
-----------------------------------------------------------------------------------
                                                               Chorus
-------------------------------------------------------------|---------------------
------7-----7-----------------------7------------------------|---------------------
777-9---9-7---9-999-999-999-999-999---9-999-999-999-999-999-|---------------------
-------------------------------------------------------------|-5-555-555-555-555-55

-----------------------------------------------------------------------7-5---------
-----------------------------------------------------------------5h7p5-----7-5-----
-----------------------------------------5-555-555-555-555-555-5---------------3-3-
5-555-555-3-333-333-333-333-333-333-333-------------------------------------------

-------------5555-7-5-4------------------------------------------------------------
------------------------5----------------------------------------------------------
3-3-3-3-3-3-3---------------------------------------------------------------------
--------------------------5-555-555-5555-555-555-555-555-3-333-333-333-333-333-333-

------------------------------------------------------7777-5-4---5-4-|-------------
---------------------------------------------------------------5-----|-------------
----555-555-555-555-555-555-555-555-3-33-3-3-3-3-3--3----------------|-7-777-777-77
333-----------------------------------------------------------------|-------------

-----------------------------------------------------------------------------------
-----------------------------------------------------------------------------------
7-777-777-777-777-5-555-555-555-555-555-555-555-4-444-444-444-444-444-444-444-3-33
-----------------------------------------------------------------------------------

-----------------------------------------------------------------------------------
-----------------------------------------------------------------------------------
3-333-333-5-555-555-555-7-777-777-777-777-777-777-777-5-555-555-555-555-555-555-55
-----------------------------------------------------------------------------------
                                                                 Solo
-----------------------------------------------------------------------------------
-----------------------------------------------------------------------------------
555-4-444-444-444-444-444-444-444-3-333-333-333-5-555-555-555-9-999-999-999-999-99
-----------------------------------------------------------------------------------
              
-----------------------------------------------------------------------------------
-----------------------------------------------------------------------------------
9-999--7-9-999-999-999-999-999-999-7-999-999-999-999-999-999-7-9-9-9-10-10-10-11--
-----------------------------------------------------------------------------------
                                              Chorus
---------------------------------------------|-------------------------------------
---------------------------------------------|-------------------------------------
11-11-12-12-12-13-14---10-11-12-13-14-15-16-|-------------------------------------
---------------------------------------------|-5-555-555-555-555-555-555-555-3-333-

-------------------------------------------------------7-5-------------------------
-------------------------------------------------5h7p5-----7-5---------------------
------------------------5-555-555-555-5555-555-5---------------3-3-3-3-3-3-3-3-3-3-
333-333-333-333-333-333-----------------------------------------------------------

-5555-7-5-4------------------------------------------------------------------------
------------5----------------------------------------------------------------------
---------------------------------------------------------------------------555-555-
--------------5-555-555-555-555-555-5555-555-3-333-333-333-333-333-333-333---------

-------------------------------------------7777-5-4---5-4--------------------------
----------------------------------------------------5------------------------------
555-555-555-555-555-555-3-3-3-3-3-3-3-3-3-----------------------------------------
----------------------------------------------------------5-555-555-555-555-555-555

-----------------------------------------------------------------------------------
-----------------------------------------------------------------------------------
----------------------------------5-5555-555-555-555-555-5555-555-555-555-3-3-3-3-3
555-3-333-333-333-333-333-333-333-------------------------------------------------

-----------5555-7-5-4--------------------------------------------------------------
----------------------5------------------------------------------------------------
-3-3-3-3-3-------------------------------------------------------------------------
------------------------5-555-555-555-5555-555-555-555-3-333-333-333-333-333-333-33

----------------------------------------------------------------------------------|
---------------------------5-5-5-4-4-4--------------------------------------------|
--5-555-555-555--5---3-------------------3--0---0-0-0-0-0-0-0-0-0-0-0-0-0-0-0-0---|
3--------------------------------------------------------------------------------|
Copyright Marcelo Danemberg Marsili (alumar@uninet.com.br)
Tab from Maiden World - (http://www.maiden-world.com/)
Click here for printable version



You are here: Home > Tabs > Iron Maiden - Sun And Steel Bass Tab


All content, images and other resources are the property of their respective copyright holders
Specific website content & style is copyright © 2003-2018 maiden-world.com, All Rights Reserved
Admin E-mail: admin AT maiden-world DOT com , Site Design by Jon Simpson